Metallica - Until It Sleeps Chords & Tabs

 

Until It Sleeps Chords & Tabs

Metallica Chords & Tabs

Version: 3 Type: Bass Tab 0 ratings
1 star 2 stars 3 stars 4 stars 5 stars
comments

Until It Sleeps Bass Tab

                                                                       
G||--0--|--2----------------|--5------4-----------|--2----------------|
D||-----|-------------------|----------------5----|-------------------|
A||-----|-------------------|---------------------|-------------------|
E||-----|-------------------|---------------------|-------------------|


                                                             
--5------------------|-------------------|------------------|
---------3------2----|-------------------|------------------|
---------------------|--0----------------|------------------|
---------------------|-------------------|------------------|


                                                              
--2----------------|--5------4-----------|-------------------|
-------------------|----------------5----|-------------------|
-------------------|---------------------|-------------------|
-------------------|---------------------|--5----------------|


                                                               
------------------|--2----------------|--5--------------------|
------------------|-------------------|---------3-------------|
------------------|-------------------|--------------------3--|
------------------|-------------------|--------------3--3-----|


                                                                             
-------------------------|------------------------|-------------------------|
-------------------------|------------------------|-------------------------|
--0----0--0--0--0--0-----|------------------------|--0----0--0--0--0--0-----|
----------------------3--|------3--1--1--1--1--1--|----------------------3--|


                                                                            
------------------------|-------------------------|------------------------|
------------------------|-------------------------|------------------------|
------------------------|--0----0--0--0--0--0-----|------------------------|
------3--1--1--1--1--1--|----------------------3--|------3--1--1--1--1--1--|


                                                                       
-------------------------|------------------------|--2----------------|
-------------------------|------------------------|-------------------|
--0----0--0--0--0--0-----|------------------------|-------------------|
----------------------3--|------3--1--1--1--1--1--|-------------------|


                                                               
--5------4-----------|--2----------------|--0-----------------|
----------------5----|-------------------|---------3----------|
---------------------|-------------------|--------------------|
---------------------|-------------------|--------------------|


                                                           
-------------------|------------------|--2----------------|
-------------------|------------------|-------------------|
--0----------------|------------------|-------------------|
-------------------|------------------|-------------------|


                                                             
--5------4-----------|-------------------|------------------|
----------------5----|-------------------|------------------|
---------------------|-------------------|------------------|
---------------------|--5----------------|------------------|


                                                                      
--2----------------|--5--------------------|-------------------------|
-------------------|---------3-------------|-------------------------|
-------------------|--------------------3--|--0----0--0--0--0--0-----|
-------------------|--------------3--3-----|----------------------3--|


                                                                            
------------------------|-------------------------|------------------------|
------------------------|-------------------------|------------------------|
------------------------|--0----0--0--0--0--0-----|------------------------|
------3--1--1--1--1--1--|----------------------3--|------3--1--1--1--1--1--|


                                                                             
-------------------------|------------------------|-------------------------|
-------------------------|------------------------|-------------------------|
--0----0--0--0--0--0-----|------------------------|--0----0--0--0--0--0-----|
----------------------3--|------3--1--1--1--1--1--|----------------------3--|


                                                               
------------------------|-------------------------------------|
------------------------|-------------------------------------|
------------------------|-------------------------------------|
------3--1--1--1--1--1--|--0----0--0--0--0--0--0--0--0--0--0--|


                                                                            
-------------------------------------|-------------------------------------|
-------------------------------------|-------------------------------------|
-------------------------------------|-------------------------------------|
--0----0--0--0--0--0--0--0--0--0--0--|--0----0--0--0--0--0--0--0--0--0--0--|


                                                                            
-------------------------------------|-------------------------------------|
-------------------------------------|-------------------------------------|
-------------------------------------|-------------------------------------|
--0----0--0--0--0--0--0--0--0--0--0--|--0----0--0--0--0--0--0--0--0--0--0--|


                                                                            
-------------------------------------|-------------------------------------|
-------------------------------------|-------------------------------------|
-------------------------------------|-------------------------------------|
--0----0--0--0--0--0--0--0--0--0--0--|--0----0--0--0--0--0--0--0--0--0--0--|


                                                                             
-------------------------------------|-------------------|------------------|
-------------------------------------|-------------------|------------------|
-------------------------------------|--0----------------|------------------|
--0----0--0--0--0--0--0--0--0--0--0--|-------------------|------------------|


                                                                                
-------------------|--------------------|-------------------|------------------|
-------------------|--------------------|-------------------|------------------|
--0----------------|--------------------|--0----------------|------------------|
-------------------|--3------1----------|-------------------|------------------|


                                                              
--2----------------|--5------4-----------|-------------------|
-------------------|----------------5----|-------------------|
-------------------|---------------------|-------------------|
-------------------|---------------------|--5----------------|


                                                               
------------------|--2----------------|--5--------------------|
------------------|-------------------|---------3-------------|
------------------|-------------------|--------------------3--|
------------------|-------------------|--------------3--3-----|

[ Tab from: http://www.guitartabs.cc/tabs/m/metallica/until_it_sleeps_btab_ver_3.html ]
                                                                             
-------------------------|------------------------|-------------------------|
-------------------------|------------------------|-------------------------|
--0----0--0--0--0--0-----|------------------------|--0----0--0--0--0--0-----|
----------------------3--|------3--1--1--1--1--1--|----------------------3--|


                                                                            
------------------------|-------------------------|------------------------|
------------------------|-------------------------|------------------------|
------------------------|--0----0--0--0--0--0-----|------------------------|
------3--1--1--1--1--1--|----------------------3--|------3--1--1--1--1--1--|


                                                   
-------------------------|------------------------|
-------------------------|------------------------|
--0----0--0--0--0--0-----|------------------------|
----------------------3--|------3--1--1--1--1--1--|


                                                                            
-------------------------------------|-------------------------------------|
-------------------------------------|-------------------------------------|
-------------------------------------|-------------------------------------|
--0----0--0--0--0--0--0--0--0--0--0--|--0----0--0--0--0--0--0--0--0--0--0--|


                                                                            
-------------------------------------|-------------------------------------|
-------------------------------------|-------------------------------------|
-------------------------------------|-------------------------------------|
--0----0--0--0--0--0--0--0--0--0--0--|--0----0--0--0--0--0--0--0--0--0--0--|


                                                                            
-------------------------------------|-------------------------------------|
-------------------------------------|-------------------------------------|
-------------------------------------|-------------------------------------|
--0----0--0--0--0--0--0--0--0--0--0--|--0----0--0--0--0--0--0--0--0--0--0--|


                                                                            
-------------------------------------|-------------------------------------|
-------------------------------------|-------------------------------------|
-------------------------------------|-------------------------------------|
--0----0--0--0--0--0--0--0--0--0--0--|--0----0--0--0--0--0--0--0--0--0--0--|


                                                                              
-------------------|------------------|-------------------|------------------|
-------------------|------------------|-------------------|------------------|
--0----------------|------------------|--0----------------|------------------|
-------------------|------------------|-------------------|------------------|


                                                           
-------------------|------------------|-------------------|
-------------------|------------------|-------------------|
--0----------------|------------------|--0----------------|
-------------------|------------------|-------------------|


                                                                          
---------------------|-------------------------|-------------------------|
---------------------|-------------------------|-------------------------|
------------0--2--3--|----3--3--3--3--3--3--3--|----3--3--3--3--3--3--3--|
---------------------|-------------------------|-------------------------|


                                                                              
-------------------------|-------------------------|-------------------------|
-------------------------|-------------------------|-------------------------|
----3--3--3--3--3--3--3--|----3--3--3--3--3--3--3--|----3--3--3--3--3--3--3--|
-------------------------|-------------------------|-------------------------|


                                                                                
-------------------------|--------------------------|--------------------------|
-------------------------|--------------------------|--------------------------|
----3--3--3--3--3--3--3--|--0--0--0--0--0--0--0--0--|--0--0--0--0--0--0--0--0--|
-------------------------|--------------------------|--------------------------|


                                                                             
-------------------------|------------------------|-------------------------|
-------------------------|------------------------|-------------------------|
--0----0--0--0--0--0-----|------------------------|--0----0--0--0--0--0-----|
----------------------3--|------3--1--1--1--1--1--|----------------------3--|


                                                                            
------------------------|-------------------------|------------------------|
------------------------|-------------------------|------------------------|
------------------------|--0----0--0--0--0--0-----|------------------------|
------3--1--1--1--1--1--|----------------------3--|------3--1--1--1--1--1--|


                                                                             
-------------------------|------------------------|-------------------------|
-------------------------|------------------------|-------------------------|
--0----0--0--0--0--0-----|------------------------|--0----0--0--0--0--0-----|
----------------------3--|------3--1--1--1--1--1--|----------------------3--|


                                                                            
------------------------|-------------------------|------------------------|
------------------------|-------------------------|------------------------|
------------------------|--0----0--0--0--0--0-----|------------------------|
------3--1--1--1--1--1--|----------------------3--|------3--1--1--1--1--1--|


                                                                             
-------------------------|------------------------|-------------------------|
-------------------------|------------------------|-------------------------|
--0----0--0--0--0--0-----|------------------------|--0----0--0--0--0--0-----|
----------------------3--|------3--1--1--1--1--1--|----------------------3--|


                                                                
------------------------|-------------------|------------------|
------------------------|-------------------|------------------|
------------------------|--0----------------|------------------|
------3--1--1--1--1--1--|-------------------|------------------|


                                                           
-------------------|------------------|--2----------------|
-------------------|------------------|-------------------|
--0----------------|------------------|-------------------|
-------------------|------------------|-------------------|


                                                                
--5------4-----------|--2----------------|--5------------------|
----------------5----|-------------------|---------3------2----|
---------------------|-------------------|---------------------|
---------------------|-------------------|---------------------|


                     
-------------------||
-------------------||
--0----------------||
-------------------||
Comments