Metallica - Unforgiven Chords & Tabs

 

Unforgiven Chords & Tabs

Metallica Chords & Tabs

Version: 9 Type: Tab 0 ratings
1 star 2 stars 3 stars 4 stars 5 stars
comments

Unforgiven Tab

This is a pretty good solo. I haven't seen it around much so i decided to post it.

H- hammer on
P- pull off
S- Slide

E-| ----------------------------|-0-0-0-0-0-0-0s0-------|
B-| ----------------------------|-0-1-3-5-3-1-1s3-------|
G-| ---4-5-7-5-4h5p4---4--------|-----------------------|
D-| -7---------------7---5-7----|-----------------------|
A-| ----------------------------|-----------------------|
E-| ----------------------------|-----------------------|
[ Tab from: http://www.guitartabs.cc/tabs/m/metallica/unforgiven_tab_ver_9.html ]
E-| ----------------------------|-----------------------|
B-| -8s10s8--7---3-----3--------|-----------------------|
G-| -7s-9s7--7----4--4--4-------|-----------5-----------|
D-| ---------------5-----5------|---------5---5-5s7-----|
A-| ----------------------------|-3s5-6-7---------------|
E-| ----------------------------|-----------------------|

E-| -----------------------|-7---10----12-----14-----15---17
B-| -8-7h8p7---7-8-10------|--8-8--8-10--10-12--12-14--14--|
G-| ---------9-------------|-------------------------------|
D-| -----------------------|-------------------------------|
A-| -----------------------|-------------------------------|
E-| -----------------------|-------------------------------|

Thats all. Any corrections/hatemail roymoose@aol.com
BoB
Comments