Metallica - Unforgiven Chords & Tabs

 

Unforgiven Chords & Tabs

Metallica Chords & Tabs

Version: 5 Type: Tab 0 ratings
1 star 2 stars 3 stars 4 stars 5 stars
comments

Unforgiven Tab

Metallica Rules!!!!!!! Questions or Comments? e-mail me at
Jaek85@hotmail.com 


First comes the horn,
intro is by James.(acoustic)
|--------------------------------|
|-0-----0-----0-----0-----1------|
|---2-----2-----2-----2-----2----|
|-----2-----2-----2-----2-----2--|
|-0------------------------------|
|--------------------------------|
This repeats until Kirk starts playing, then play:

Clean electric by Kirk:
|------------------------------------------|
|------------------------------------------|
|--2--4--4h5---5-4-2----2--4--4h5---5--2---|
|------------------------------------------|
|------------------------------------------|
|------------------------------------------|

|------------------------------------------|
|------------------------------------------|
|--2--4--4h5---5-4-2----2--4--4h5---5--2---|
|------------------------------------------|
|------------------------------------------|
|------------------------------------------|

|-------------------------------------------|
|-------------------------------------------|
|--2--4--4h5--5--5-5-4-----4-----2--2h4--2--|
|-----------------------5----2-2------------|
|-------------------------------------------|
|-------------------------------------------|

|------------------------------------------------|
|------------5--5--5--3--------------------------|
|--2--4--4h5------------4--4\--1-1--4p0--2h4-2---|
|------------------------------------------------|
|------------------------------------------------|
|------------------------------------------------|

|-------------------------------|
|------0-----0-----0-----1------|
|--2-----2-----2-----2-----2----|
|----2-----2-----2-----2-----2--|
|-------------------------------|
|-------------------------------|

|--------------------------------|
|-0-----0-----0-----0-----1------|
|---2-----2-----2-----2-----2----|
|-----2-----2-----2-----2-----2--|
|-0------------------------------|
|--------------------------------|

THIS PART IS MY MODIFIED VERSION WHICH INCLUDES THE NOTES OF JAMES'
VOICE WITH KIRK'S GUITAR---- IT MAY SEEM HARD, BUT PRACTICE IT 'CAUSE 
IT SOUNDS SWEEEEEEEET WHEN PLAYED RIGHT!!

---1ST CHORUS---

|-------------------------------------------|
|-------------------8--8--7--7--------------|
|-7--5--4--5--------9--9--7--7--5--5--------|
|-9--7--5--7--5-----------------7--7--------|
|-------------7-----------------------------|
|-------------------------------------------|
[ Tab from: http://www.guitartabs.cc/tabs/m/metallica/unforgiven_tab_ver_5.html ]
|-------------------------------------------|
|---------------------8--8--7--7------------|
|-7--7--5--4--5-------9--9--7--7--5--5------|
|-9--9--7--5--7--5----------------7--7------|
|----------------7--------------------------|
|-------------------------------------------|

|-------------------------------------------|
|-------------------8--8--7--7--------------|
|-7--5--4--5--------9--9--7--7--5--5--------|
|-9--7--5--7--5-----------------7--7--------|
|-------------7-----------------------------|
|-------------------------------------------|

|-----------------------------------|
|---------------------8--8--7--7----|
|-7--7--5--4--5-------9--9--7--7--5-| 
|----------------7------------------|
|-----------------------------------|
                     The young man struggles 


    P.M--|  P.M--|  P.M--|  P.M--| 
|---------------------------------|---------------------------------|
|---------------------------------|---------------------------------|
|-5-------4-------2-------0-------|---------------------------------|
|---0-------0-------0-------0-----|-5-------------------------------|
|-----0-0-----0-0-----0-0-----0-0-|-3---------5-3-0-5---------------|
|---------------------------------|-----------------3---------------|
on and  on. He knows,_      oo, a  vow unto   his own            that

    P.M--|  P.M--|  P.M--|  P.M--|
|---------------------------------|---------------------------------|
|---------------------------------|---------------------------------|
|-5-------4-------2-------0-------|---------------------------------|
|---0-------0-------0-------0-----|-5-------------------------------|
|-----0-0-----0-0-----0-0-----0-0-|-3---------5-3-0-3---------------|
|---------------------------------|-----------------5---------------|
never from  this day          his will they'll take a - way__________


|-------------------------------------------|
|-------------------------------------------|
|--2--4--4h5--5--5-5-4-----4-----2--2h4--2--|
|-----------------------5----2-2------------|
|-------------------------------------------|
|-------------------------------------------|
What I've felt...

|------------------------------------------------|
|------------5--5--5--3--------------------------|
|--2--4--4h5------------4--4\-1-1--2--2h4--2-----|
|------------------------------------------------|
|------------------------------------------------|
|------------------------------------------------|
Never Be, Never See...

(Repeat the 2 lines)

Then play the intro part.

---2nd CHORUS IS THE SAME AS THE 1ST (REPEAT EVERYTHING UNTIL 
KIRK PLAYS THE INTERLUDE)---

(KIRK USES CLEAN ELECTRIC WITH ECHO, NOT REVERB)

>>>I figured out this part and it is 100% correct.>I know that looks tough but if you practice it and listen to the song you 
will see that it is 100% correct.
Comments