Metallica - Unforgiven Chords & Tabs

 

Unforgiven Chords & Tabs

Metallica Chords & Tabs

Version: 11 Type: Tab 0 ratings
1 star 2 stars 3 stars 4 stars 5 stars
comments

Unforgiven Tab

------------------------------------------------------
-7^-7^------------------------------------------------
-7^-7^-5------------------------5-5-7-7/-9-7-9/-11-9-11
--------7-7^-7-5--------------7-----------------------
----------------7-5\3-5-----3^------------------------
-----------------------5-3-5--------------------------

--------------------------------------------22^-22^22-17-17-
---------15--15--13-----15---22~~~~-22-17-17----------------
14-12-14---14--14--14-14--14--------------------------------
------------------------------------------------------------
------------------------------------------------------------
------------------------------------------------------------
[ Tab from: http://www.guitartabs.cc/tabs/m/metallica/unforgiven_tab_ver_11.html ]
22-17h20p17---17~\-7-9-7--7-----------------------------
------------20----------10-10-8-7-----------------------
---------------------------------9-9-7\5-5-7-5-4-5-4-2~-
--------------------------------------------------------
--------------------------------------------------------
--------------------------------------------------------

--12------------------17-17~-17-19-20-19-17-19-17h19p17-
----13---x7---------------------------------------------
/-----14----19^-19^-17----------------------------------
--------------------------------------------------------
--------------------------------------------------------
--------------------------------------------------------

-17---------------------------------------------------------
---19-17--19-17------------------------20-18h20p18/17-18-17~
--------20-----19^-17-19^-17-19^-19^-17---------------------
------------------------------------------------------------
------------------------------------------------------------
------------------------------------------------------------


any questions or comments e-mail me at manosteelman316@hotmail.com
Comments