Metallica - Unforgiven James Part Chords & Tabs

 

Unforgiven James Part Chords & Tabs

Metallica Chords & Tabs

Version: 1 Type: Tab 2 ratings
1 star 2 stars 3 stars 4 stars 5 stars
comments

Unforgiven James Part Tab

   
The Unforgiven
James Hetfield guitar tab
by Matt Nicholas

Intro
                repeat four times
|---------------------------------|---------------------------------|
|.0-------0-----0-----0-----1----.|-0-------0-----0-----1-----1-----|
|-----2-----2-----2-----2-----2---|-----2-----2-----2-----2-----2---|
|.------2-----2-----2-----2-----2.|-------2-----2-----2-----2-----2-|
|-0-------------------------------|-0-------------------------------|
|---------------------------------|---------------------------------|

|---------------------------------|---------------------------------|
|-0-------0-----1-----1-----1-----|-0-------0-----0-----1-----1-----|
|-----2-----2-----2-----2-----2---|-----2-----2-----2-----2-----2---|
|-------2-----2-----2-----2-----2-|-------2-----2-----2-----2-----2-|
|-0-------------------------------|-0-------------------------------|
|---------------------------------|---------------------------------|

|---------------------------------|---------------------------------|
|-0-------0-----1-----1-----1-----|-------------0---1-------1-----1-|
|-----2-----2-----2-----2-----2---|---------2-----------------------|
|-------2-----2-----2-----2-----2-|-----2-----------------2-----2---|
|-0-------------------------------|-0-------------------3-----------|
|---------------------------------|---------------------------------|

|---------------------------------|-------------------------0-----0-|
|---------------------------------|-------------0---1-----------1---|
|-----0-------0-----------2---2^4-|-2-------2-----------------------|
|---0-------------2---2-2---------|-------2---------------2---------|
|---------------------------------|-----0---------------3-----------|
|-3-------3-----------------------|---------------------------------|

|---------------------------------|---------------------------------|
|-1-3-0-------3-------------------|---------0-----0-----0-----1-----|
|-----------------1---1---4-1-2^4-|-----2-----2-----2-----2-----2---|
|---------------------------------|-------2-----2-----2-----2-----2-|
|---------------------------------|-0-------------------------------|
|---------3-----------------------|---------------------------------|


Verse

Am C Em D 

|------------------------------|
|------------------------------|
|-----------------------5------|
|--9----7----5----4-----5-5----|
|----0----0----0----0---3-5----|
|-------------------------3----|


Chorus

|---------------------|---------------------|
|-------0-1-----1---1-|---------------------|
|-----2---------------|-----0---0-----2-2^4-|
|---2---------2---2---|---------0-2-2-------|
|-0---------3---------|---2-----------------|
|---------------------|-3-----3-------------|
[ Tab from: http://www.guitartabs.cc/tabs/m/metallica/unforgiven_james_part_tab.html ]
|-----------------0---0-|-----------------------|
|---------0-1-------1---|-1-3-0---3-------------|
|-2-----2-------2-------|-----------1-1-4-1-2^4-|
|-----2-------3---------|-----------------------|
|---0-------------------|-----------------------|
|-----------------------|-------3---------------|


Interlude

|--------------------------------|-------------------------------|
|-0-----0-----0-----0-----1------|-0-----0-----0-----0-----1-----|
|---2-----2-----2-----2-----2----|---2-----2-----2-----2-----2---|
|-----2-----2-----2-----2-----2--|-----2-----2-----2-----2-----2-|
|-0------------------------------|-0-----------------------------|
|--------------------------------|-------------------------------|

|-------------------------------|-------------------------------|
|-0-----0-----0-----0-----1-----|-0-----0-----0-----0-----1-----|
|---2-----2-----2-----2-----2---|---2-----2-----2-----2-----2---|
|-----2-----2-----2-----2-----2-|-----2-----2-----2-----2-----2-|
|-0-----------------------------|-0-----------------------------|
|-------------------------------|-------------------------------|

|---------------------------------------|---------------------------------|
|-0-------------0-----0-----0-----1-----|-0-------0-----0-----0-----1-----|
|-----------2-----2-----2-----2-----2---|-----2-----2-----2-----2-----2---|
|-------------2-----2-----2-----2-----2-|-------2-----2-----2-----2-----2-|
|-0-------------------------------------|-0-------------------------------|
|---------------------------------------|---------------------------------|


Play the verse chords over the solo

then strum Am, C, D and Em for the rest of the song.


Lyrics

New blood joins this earth and quickly he's subdued.
Through constant pain, disgrace, the young boy learns their rules.
With time, the child draws in this wipping boy done wrong.
Deprived of all his toughts the young man struggles on and on.
He's knwon, oo, a vow unto his own that never from this day his will they'll take away.

What I've felt,
What I've known,
Never shined through in what I've shown
Never be,
Never see.
Won't see what might have been.

What I've felt,
What I've known,
Never shined through in what I've shown
Never free.
Never me.
So I dub thee unforgiven.

Dedicate their lives to running all of his.
He tries to please them all, this bitter man he is.
Throughout his life the same, he's battled constantly.
This fight he cannot win.
A tired man they see no longer cares.
The old man then prepares to die regretfully.
That old man here is me.

What I've felt,
What I've known,
Never shined through in what I've shown
Never be,
Never see.
Won't see what might have been.

What I've felt,
What I've known,
Never shined through in what I've shown
Never free.
Never me.
So I dub thee unforgiven.

(solo)

Never free.
Never me.
So I dub the unforgiven.

You labeled me.
I'll label you.
So I dub the unforgiven.
Comments