Metallica - Unforgiven 2 Chords & Tabs

 

Unforgiven 2 Chords & Tabs

Metallica Chords & Tabs

Version: 5 Type: Tab 0 ratings
1 star 2 stars 3 stars 4 stars 5 stars
comments

Unforgiven 2 Tab

   
Song:Unforgiven 2
Artist:Metallica
Album:Re-load
Transcripter:ld zppln904


b-bend
h-hammer
p-pull off
~-vibrato
r-release bend
/-slide up
\-slide down

tuning: Eb Ab Db Gb Bb Eb

Intro:

|------------------------------------|
|------------------------------------|
|-2--2--4/5-7-4/5-5-7\5/7-7/9-7-5/7-5|
|-2--2--4/5-7-4/5-5-7\5/7-7/9-7-5/7-5| repeat x1
|-0--0--2/3-5-2/3-3-5\3/5-5/7-5-3/5-3|
|------------------------------------|

Verse:

|-------0-----------------3b4r3---------------------|
|---------1---------------3b4r3--5-3-1p0-0----1/3\1-|
|---------------------0--------------------0--------|
|---2---------------2-------------------------------|repeat x6
|-0-----------0-2-3---------------------------------|
|---------------------------------------------------|



|------------------------------------|
|------------------------------------|
|-2--2--4/5-7-4/5-5-7\5/7-7/9-7-5/7-5|
|-2--2--4/5-7-4/5-5-7\5/7-7/9-7-5/7-5| repeat x1
|-0--0--2/3-5-2/3-3-5\3/5-5/7-5-3/5-3|
|------------------------------------|

verse:

|-------0-----------------3b4r3---------------------|
|---------1---------------3b4r3--5-3-1p0-0----1/3\1-|
|---------------------0--------------------0--------|
|---2---------------2-------------------------------|repeat x6
|-0-----------0-2-3---------------------------------|
|---------------------------------------------------|


pre chorus:
 
|-----1-----------------------------0-|
|-------3---------------------------0-|
|-------------2-3-------------------2-|
|---0-------0------------5-----3-5--2-|
|-0-------0----------2-3-----2------0-|
|-----------------3--------1----------|

chorus:

|------------0-0-0-0-0-0-0-0---------------0-0--|
|-0-1-1--0-1-0-0-0-0-1-3-1-0--0-1-1--0-1-1-3-1--|
|-2-2-2--2-2-2-0-0-0-0-0-0-0--2-2-2--2-2-2-0-0--|
|-2-2-2--2-2-2----------------2-2-2--2-2-2------|repeat x1 
|-----------------------------------------------|
|-----------------------------------------------|


chorus fill:

|--------------|
|--------------|
|--7-5-4-5-4\2-|
|--------------|
|--------------|
|--------------|




|------------------------------------|
|------------------------------------|
|-2--2--4/5-7-4/5-5-7\5/7-7/9-7-5/7-5|
|-2--2--4/5-7-4/5-5-7\5/7-7/9-7-5/7-5| repeat x1
|-0--0--2/3-5-2/3-3-5\3/5-5/7-5-3/5-3|
|------------------------------------|


ok this part i couldnt 
really figure that good 
becuase it hade some 
crazy effect.

|-5---5---3---3---3---3----------|                                   
|-5---5---3---3---3---3---5---5--|                                   
|-5---5---5---5---5---5---5---5--|                                   
|--7---7---5---5---5---5--6---6--|repeat x 4                             
|--------------------------7---7-|                                   
|--------------------------------|


|-----1-----------------------------0-|
|-------3---------------------------0-|
|-------------2-3-------------------2-|
|---0-------0------------5-----3-5--2-|
|-0-------0----------2-3-----2------0-|
|-----------------3--------1----------|

[ Tab from: http://www.guitartabs.cc/tabs/m/metallica/unforgiven_2_tab_ver_5.html ]
|------------0-0-0-0-0-0-0-0---------------0-0--|
|-0-1-1--0-1-0-0-0-0-1-3-1-0--0-1-1--0-1-1-3-1--|
|-2-2-2--2-2-2-0-0-0-0-0-0-0--2-2-2--2-2-2-0-0--|
|-2-2-2--2-2-2----------------2-2-2--2-2-2------|repeat x1 
|-----------------------------------------------|
|-----------------------------------------------|

|--------------|
|--------------|
|--7-5-4-5-4\2-|
|--------------|
|--------------|
|--------------|


Solo:
|----------------------------------------------|
|-----------------------------13-15br-13----13-|
|-2-2-4-5-7b-5h7p5-4-5----/14------------14----|
|----------------------5-----------------------|
|----------------------------------------------|
|----------------------------------------------|

|------15-----15-----15------------------|
|-15b----15b----15b----15b-15br-13----13-|
|----------------------------------14----|
|----------------------------------------|
|----------------------------------------|
|----------------------------------------|

|-15b--15b-15b-15b------17------------17--------|
|-------------------/17----17-20b-/17----17-20b-|
|-----------------------------------------------|
|-----------------------------------------------|
|-----------------------------------------------|
|-----------------------------------------------|

|-----17------------------------------------|
|-/17----17-20br-17----------19-17----19-17-|
|-------------------19-17----19-17----19-17-|
|-------------------------19-------19-------|
|-------------------------------------------|
|-------------------------------------------|

|---------------------------------|
|----19-17------------------19-17-|
|----19-17----17-19br-17----19-17-|
|-19-------19------------19-------|
|---------------------------------|
|---------------------------------|

|------------------------------------|
|------------------------------------|
|-2--2--4/5-7-4/5-5-7\5/7-7/9-7-5/7-5|
|-2--2--4/5-7-4/5-5-7\5/7-7/9-7-5/7-5| repeat x1
|-0--0--2/3-5-2/3-3-5\3/5-5/7-5-3/5-3|
|------------------------------------|

|-------0-----------------3b4r3---------------------|
|---------1---------------3b4r3--5-3-1p0-0----1/3\1-|
|---------------------0--------------------0--------|
|---2---------------2-------------------------------|repeat x4
|-0-----------0-2-3---------------------------------|
|---------------------------------------------------|


|-----1-----------------------------0-|
|-------3---------------------------0-|
|-------------2-3-------------------2-|
|---0-------0------------5-----3-5--2-|
|-0-------0----------2-3-----2------0-|
|-----------------3--------1----------|


|------------0-0-0-0-0-0-0-0---------------0-0--|
|-0-1-1--0-1-0-0-0-0-1-3-1-0--0-1-1--0-1-1-3-1--|
|-2-2-2--2-2-2-0-0-0-0-0-0-0--2-2-2--2-2-2-0-0--|
|-2-2-2--2-2-2----------------2-2-2--2-2-2------|repeat x4 
|-----------------------------------------------|
|-----------------------------------------------|

|--------------|
|--------------|
|--7-5-4-5-4\2-|
|--------------|
|--------------|
|--------------|

End:
|----------------------------------------------|
|----------------------------------------------|
|-2-2----2-2----2-2----2-2----2-2----2-2-----2-|
|-2-2----2-2----2-2----2-2----2-2----2-2-----2-|
|-0-0----0-0----0-0----0-0----0-0----0-0-----0-|
|----------------------------------------------|



                                   The End.
Comments