Metallica - Turn The Page Chords & Tabs

 

Turn The Page Chords & Tabs

Metallica Chords & Tabs

Version: 1 Type: Bass Tab 0 ratings
1 star 2 stars 3 stars 4 stars 5 stars
comments

Turn The Page Bass Tab

Song: Turn the Page
Band: MetallicA (original Bob Seger)
Album: Garage Inc.

Transcribed by Eros Fratini (e-r-o-s@libero.it)

A partial time notation is applied only since Guitar Solo, but the song 
is easy to listen and I think you haven't problems.
The difficult is to learn all the variation (I just improvise).

------------------------------- -BASS- --------------------------------
Tune Down 1/2 step (buy another bass, you can't change tune each time)

Intro:
Gb:-------------------------------------------------------------------
Db:-------------------------------------------------------------------
Ab:---7------7------7------7------7------7------7-5----5-5----5-5----5
Eb:-0------0------0------0------0------0------------------------------
                               On a long...

Gb:---------------------------------------------------------:
Db:---------------------------------------------------------:
Ab:-5----5h7---------------------------------5h7--------7---:
Eb:---------5----5-5------5------5-5-----5h7-----0--------0-: end Intro


Verse 1:
Gb:--------------------------------------------------------------------
Db:--------------------------------------------------------------------
Ab:--------7----------7----------7-----------7-7--5--5-3-5-5-5-5-3h4-5-
Eb:-----0----0--0---0----0--0--0----0--0---0---------------------------
But your thoughts will soon....                

Gb:--------------------------------------------------------------------
Db:-------------------------------7----------7-------------7-7------7--
Ab:-5--5-5--5-5-5-5--5-5--5/7------------------------------------------
Eb:---------------------------5-------5----5----3h4-5-5-5-------5-5----
		      And you don't feel much like...

Gb:-------------------------------------------------------:
Db:-------------------------------------------------------:
Ab:-----5-7-----7----------5h7-7--7-7--7------7-7-7-7-7-7-:
Eb:-5-7-----0-------0--0-0-----0--0-0--0--0-0-------------: end Verse 1
					          Here I'am....

Chorus:
Gb:-------------------------------------------------- -----------------
Db:-------------------------------------------------- -----------------
Ab:-5---5--0-0-5-0-5-5-5h7------7--7-5-7-7---5h7-5h7- -5---5--0-0-5-7-5
Eb:------------------------0--0------------0--------- -----------------
		       On the road...       There I'am...	

Gb:--------------------------------------------------------------------
Db:-----------------------------------7----7----------------------7----
Ab:-5--5h7--------7---------7-7--5h7--5----5--0-5-0-5--5--5h7----------
Eb:--------0-0--0-0-0-0-0-0-0-0-------------------------------5--------

Gb:--------------------------------------------------------------------
Db:--------------------------------------------------------------------
Ab:-------------3---3---3-5--5-3-5--7-------7------7--7---7-7----------
Eb:-5-5--5-5--5-------5-------------0--0-0----0-0---0--0--0-0-0-0-0-0-0
	There I Go...        Turn the page

Gb:---------------:
Db:---------------:
Ab:---------------:
Eb:-0-0-0-0-0-3-2-: end Chorus
              As We

Verse 2:
Gb:--------------------------------------------------------------------
Db:--------------------------------------------------------------------
Ab:-----7-----------7-5h7---7-7---7--------7-7-5h7-5---5--0-5-0-5-5-5h7
Eb:-0-------0-0---0-------0---------0--0-0-----------------------------
    walking to this restaurant...

Gb:--------------------------------------------------------------------
Db:--------------------------------------------------------------------
Ab:-5--5--0-5-0-5-5-5h7-5--5-5-5--5-5-5--5-5-5-5h7---------------------
Eb:------------------------------------------------5--5-5-5--5-5-5--5-5

Gb:------------------------------------- ------------------------------
Db:------------------------------------- ------------------------------
Ab:---------------------------------5-7- --------7-----------7p5h7-----
Eb:-5--5--5--5-5-5--5-5-5-5-5-5-5-7----- -0--0-0----0-0--0-0-------0--0
 		 To Explode........

Gb:--------------------------------------------------------------------
Db:--------------------------------------------------------------------
Ab:---7-7------------7--5/7-------7--7-7--------7--5/7-------7--7------
Eb:-0-----0-0-0--0-0-0-------0--0--------0--0-0--------0--0-------0-0-0
                 Yeah most time...

Gb:--------------------------------------------------------------------
Db:-----------------------------------------------------------------7--
Ab:---7--5h7-5-5-5--0-5-0-5-5-5-5-0-5--5-5-5--5-0-5-5--5-0-------------
Eb:-0------------------------------------------------------5h7--5-5----

Gb:--------------------------------------------------------------------
Db:----------7-------------7-------------------------------------------
Ab:------------------------------------7p5----------7---------7-5h7----
Eb:-5-5-5--5---5-5-5--5-5----5-5-5-5-5-----7p5-0--0-0--0-0--0-------0-0

Gb:-------------------------:
Db:---------------------5---:
Ab:---7--7----------7-5---7-:
Eb:-0-0--0--0-0-0-0---------: end Verse 2

Chorus 2:
Gb:--------------------------------------------------------------------
Db:---------------------------------------------------5----------------
Ab:-5---5--0-5--5-5-5--5h7----------7----7----7-7-7-7---7-5--5--5--0-0-
Eb:--------------------------0-0--0-0------0---------------------------

Gb:----------------------------------------- --------------------------
Db:----------------------------------------- --------------------------
Ab:-5-0-0-0-0--5h7--------------7----------- -----3--3-3----3-5-5--5-5-
Eb:----------------5---5-5--5-5-5-5-5-5-5-5- -3-5---------5------------

Gb:------------------------------------------------------------:
Db:------------------------------------------------------------:
Ab:-3-5-7---7----5-7-7-7-7-7--7-7-7---5-7--7-7-----7-7-7-7-5-7-: end 2 
Eb:-----0-----0---------------0-0-0------------0-0-------------: Chorus 

Verse 3:
Gb:--------------------------------------------------------------------
Db:--------------------------------------------------------------------
Ab:-------7------------7-5h7---7-7-7-7---7-----7-5h7-5---5---0-5-0-5-5-
Eb:-0-0-------0-0--0-0-------0---------0---0-0-------------------------
[ Tab from: http://www.guitartabs.cc/tabs/m/metallica/turn_the_page_btab.html ]
Gb:--------------------------------------------------------------------
Db:-7--7---------------------------------------------------------------
Ab:-5--5--5-5--5-5--5-5-5-5-5-5-5-5-5h7--------------------------------
Eb:-------------------------------------5--5--5--5-5-5--5-5-5--5--5-5--

Gb:--------------------------------------------------------------------
Db:-----------------------------------------------5--------------------
Ab:---------------------------5-7-7---7-------------7-5h7-------7--7-7-
Eb:-5-5--5-5--5-0-5-5-5-5-5-7-----0---0---0-0--0----------0---0-0------

Gb:--------------------------------------------------------------------
Db:--------------------------------------------------------------------
Ab:-7-10--9------------------------------------------------------------
Eb:----------0--0--0--0-0------0---------------0-0---------------------
             Later in...       lie a wake in bed               with the

Gb:--------------------------------------------------------------------
Db:--------------------------------------------------------------------
Ab:-5---------------5-5------5---------------5-5-----------------------
Eb:-------------------------------------------------------5------------   echoes of the amplifiers  ringing in your head   you smoke the day's

Gb:--------------------------------------------------:
Db:--------------------------------------------------:
Ab:--------------------------------------------5h7---:
Eb:-5-5-------------5---------------5-5------------0-: end Verse 3
  last cigarette   remembring what she said....


Interlude:
Gb:--------------------------------------------------------------------
Db:--------------------------------5-----------------------------------
Ab:-5---5-5--5-3-5--5-5-5-5-3-5------7--5-7-7-7-7-7--5h7-5---5---0-5-5-
Eb:-----------------------------0--------------------------------------

Gb:--------------------------------------------------------------------
Db:--------------------------------------------------------------------
Ab:-5-5-5--5h7-------7---7-7-7-7-7--5h7-5---5--0-5--5-5-5-5-5-7----7--7
Eb:------------0-------0----------------------------------------0----0-

Gb:-------------------------------------------------------------------:
Db:--------------------------------7-5--------------------------------:
Ab:-7-7-7------3--3-3-----3-5-5--5-----7-5-5h7-7-7-7-7-7-7-7-7-7-7-7-7:
Eb:--------3-5---------5----------------------------------------------:

Guitar Solo:
Gb:----------------------------- ------------------------------
Db:----------------------------- --------5---------9-----------
Ab:-5--5-5-5--0-5-0-5-5-5-5-3-5- -7--7-7---7-7-7-7-7-7-7-7-7-0-
Eb:----------------------------- -0----------------------------

Gb:----------------------------- ------------------------------
Db:----------------------------- --------5---------7-----------
Ab:-5-555-5-5-0-5-0-5-5-5-5-3-5- -7--7-7---7-7-7-7-7-7-7-7-7-0-
Eb:----------------------------- -0----------------------------

Gb:----------------------------- ------------------------------
Db:----------------------------- --------5---------------------
Ab:-5-555-5-5-0-5-0-5-5-5-5-5-5- -7----7---7-7-7-7-------------
Eb:----------------------------- -0--------------0---0--0--3h5-

Gb:----------------------------- ------------------------------:
Db:----------------------------- ------------------------------:
Ab:-3----3-3--3-5-0-5---5-5-3-5- -7--7-7-----7-----------------:
Eb:----------5------------------ --------0-0---0-0-0-0-0-0-0-0-:

Chorus 3:
Gb:---------7-----7------------- --------------------------------
Db:-------7-----7---7----------- ------------------------5-------
Ab:-5---5-------------5--5--5h7- ---------7--7-5-7-7-7-7---7-5h7-
Eb:----------------------------- -0---0-0-0----------------------

Gb:----------------7------------ --------------------------------
Db:------------7----7----------- ----------------------------5---
Ab:-5---5---5--5------5-5-5-5h7- ---------7--7-5-7---7---7-7---7-
Eb:----------------------------- -0-----0----------0---0---------

Gb:----------------------------- --------------------------------
Db:----------------------------- ---------7----------------7-----
Ab:-5---5---5--5-5-5--5-5-5-5h7- --------------------------------
Eb:----------------------------- -5-5---5--------5--5--5-5---5-5-

Gb:----------------------------- --------------------------------
Db:----------------------------- --------------------------------
Ab:-3---3-3----3-5-5--5-5---3-5- -7-------7-----7-7--------------
Eb:----------5------------------ -------0----0------0---0----3-5-

Gb:---------------------------------- ------------------------------
Db:---------------------------------- ------------------------------
Ab:-3-3-3-3-3-3---3-5-5-5-5-5--5-3-5- -7-7--7-------7-5-----7-5---5-
Eb:-------------5-------------------- -------0--0-0-----7-7-----7---

Gb:--------------------------------- ------------------------------
Db:--------------------------------- ------------------------------
Ab:-3-3-3-3-3---2-2-3-2-3-3-3-----3- -5---5-5-5---5-5-5--5--5--3-5-
Eb:-----------------------------5--- ------------------------------

Gb:------------------------------- ---------------------------------:
Db:---------------5--------------- -5-----------------5---------5---:
Ab:---------7---7---7-7-7-7---7-7- ---7-7-7-7-7-7-7-7---7-7-7-7---0-:
Eb:-0---0-0----------------------- ---------------------------------:

Outro:
Gb:----------------------------- --------------------------------
Db:----------------------------- --------5---------------5-------
Ab:-5--5-5--3-4-5---5-5-5---3-5- -7--7-7---7-7-7-7-7-7-7---7-7-7-
Eb:----------------------------- -0------------------------------

Gb:----------------------------- ------------------------------
Db:----------------------------- ------------------------------
Ab:-5--5-5--3-4-5-5-5-5-5---3-5- -7------7-----5h7-7-7-7-7-7-0-
Eb:----------------------------- -0--0-0-0-5h7-----------------

Gb:----------------------------- --------------------------------
Db:----------------------------- --------------------5-----------
Ab:-5-5-5-5-3-4-5---5-5-5---3-5- -7------7-----557-7---7-7-7-5-0-
Eb:----------------------------- -0--0-0-0-----------------------

Gb:----------------------------- -----------------------------:
Db:----------------------------- -----------------------------:
Ab:-3--3-3--0-2-3--3-3-3-3----3- -5------5-----5--3-3-5--3h5/-:
Eb:-------------------------5--- -----------------------------: end

-----------------------------------------------------------------------
Comments