Metallica - Trapped Under Ice Chords & Tabs

 

Trapped Under Ice Chords & Tabs

Metallica Chords & Tabs

Version: 7 Type: Tab 0 ratings
1 star 2 stars 3 stars 4 stars 5 stars
comments

Trapped Under Ice Tab

Ok well, after looking around the web for hours trying to find the solos to
Trapped Under Ice I got em and decided to post there here.

I believe these are correct and if not are very close

SOLO 1:


------------------|-------------------|--------------------|--------------------|
------------------|-------------------|--------------------|--------------------|
------------------|--9----------------|--11----------------|--12----------------|
------------------|--9----------------|--11----------------|--12----------------|
------------------|--7----------------|--9-----------------|--10----------------|
------------------|-------------------|--------------------|--------------------|


                                                                                       
------------------------|-------------------|--------------------|--------------------|
------------------------|-------------------|--------------------|--------------------|
--14--------17----16----|--9----------------|--11----------------|--12----------------|
--14--------17----16----|--9----------------|--11----------------|--12----------------|
--12--------15----14----|--7----------------|--9-----------------|--10----------------|
------------------------|-------------------|--------------------|--------------------|


                                                                    
------------------------|------14-----14----14-----14-----14----14-|
------------------------|--17b-----17b---17b---17b-----17b---17b---|
--14--------------------|------------------------------------------|
--14--------------------|------------------------------------------|
--12------19--19~-------|------------------------------------------|
------------------------|------------------------------------------|


                                                                                
--17h14-14-14-17h14-------------------------------|----------------------------|
--------------------17h14-14-14-17h14-------------|--17----17----17----17---17-|
--------------------------------------16h14-14-14-|--16b---16b---16b---16b--16r|
--------------------------------------------------|----------------------------|
--------------------------------------------------|----------------------------|
--------------------------------------------------|----------------------------|


                                                                                
----------------------14--|--18-16-14-12-15-14-12-10-14-12-10-9-12-12-10-9-7-9-|
--------14--17~---17------|----------------------------------------------------|
--------14----------------|----------------------------------------------------|
--------------------------|----------------------------------------------------|
--------------------------|----------------------------------------------------|
--------------------------|----------------------------------------------------|


                                              
--10-9-7-7-5-9-9-7-5-5-4-7-7-5-4-2-5-4-2-0-5h|
---------------------------------------------|
---------------------------------------------|
---------------------------------------------|
---------------------------------------------|
---------------------------------------------|


                                                                       
--4h2h0-5h4h2h0-5h4h2h0-2h0---------------------|-----12~-------------|
----------------------------3h2h0-5h2h0-0-2h3h0-|--0------------------|
------------------------------------------------|---------------------|
------------------------------------------------|---------------------|
------------------------------------------------|---------------------|
------------------------------------------------|---------------------|


SOLO 2:

----------------------------------|-----------------------|
----------------------------------|-----12~-----------17--|
----------------------------------|-----------------------|
--5h7h5h7h4h6h4h6h3h5h3h5h2h4h2h4h|--0b-------------------|
----------------------------------|-----------------------|
----------------------------------|-----------------------|

[ Tab from: http://www.guitartabs.cc/tabs/m/metallica/trapped_under_ice_tab_ver_7.html ]
                                                         
-----------------------------------------------------14-|
--18h14-18h14-18h17h14----18h14-17h14-14-14-17h14-14----|
-----------------------16-------------------------------|
--------------------------------------------------------|
--------------------------------------------------------|
--------------------------------------------------------|


                                                             
--17-17-16-16-14-14-----------------------------------------|
--------------------17-17-16-16-14-14-----------------------|
--------------------------------------16-14----14-----------|
--------------------------------------------16--------------|
--------------------------------------------------16--12~---|
------------------------------------------------------------|


                                                                               
-------------------------------------------------|----------------------------|
-------------------------------------------------|--17----17----17----17--17--|
------------------------------------------14-16--|--16b---16b---16b---16b-16b-|
------------------14-14-16h14----16-16-16--------|----------------------------|
--------12-12-16--------------16-----------------|----------------------------|
--12h14------------------------------------------|----------------------------|


                                                                                   
------------------------------------|--------------------------|------------------|
------------------------------------|----------------17~-------|------------------|
------14-14-14------14-14-------14--|--------14----------------|------------------|
--16------------16----------16------|---16-------14------------|------------------|
------------------------------------|--------------------------|------------------|
------------------------------------|--------------------------|------------------|


SOLO 3:

--19h17h14-19h17h14----14-19h17h14-19-19h17h14----14-|
--------------------17-------------------------17----|
-----------------------------------------------------|
-----------------------------------------------------|
-----------------------------------------------------|
-----------------------------------------------------|


                                             
--19h17h14-19-19h17h14----14-19~---------14-|
-----------------------17----------0--18----|
-----------------------------------0--------|
--------------------------------------------|
--------------------------------------------|
--------------------------------------------|


                                                                                 
--17h14----14-17h14-------------------------------|--------------------------9--|
--------17----------17-14-14-14-17h14-------------|--17----17---17-17----10-----|
--------------------------------------16-14-14-14-|--16b---16b--16b16b----------|
--------------------------------------------------|-----------------------------|
--------------------------------------------------|-----------------------------|
--------------------------------------------------|-----------------------------|


                                                        
--12-12h10h9-12-9h10h9-------12h10h9------12h10h9------|
-----------------------12h10---------12h9---------12h9-|
-------------------------------------------------------|
-------------------------------------------------------|
-------------------------------------------------------|
-------------------------------------------------------|


                                            
--12h10h9----------------------------------|
-------------9----10-12h9-x--x-------------|
----------12---11---------11-9-x--x--------|
-------------------------------11-9-x--x---|
------------------------------------11-9---|
-------------------------------------------|


                                                                     
--------------------------------------------------------------------|
--------------------------------------------------------17-17-17-17-|
-----16-16-16-------16-16-16-16-18-18-18-18-19-19-19-19-------------|
--------------16h18-------------------------------------------------|
--19----------------------------------------------------------------|
--------------------------------------------------------------------|


                                                                                      
--------------16-16-16-16-16-17-19-21--22~-----|
--19-19-19-19----------------------------------|
-----------------------------------------------|
-----------------------------------------------|
-----------------------------------------------|
-----------------------------------------------|

And there you have it, the solos for Trapped Under Ice
Comments