Metallica - Trapped Under Ice Chords & Tabs

 

Trapped Under Ice Chords & Tabs

Metallica Chords & Tabs

Version: 3 Type: Tab 0 ratings
1 star 2 stars 3 stars 4 stars 5 stars
comments

Trapped Under Ice Tab

"Trapped Under Ice"
By: MetallicA


E|-----------|-----------|-----------------------|I am going to save
B|-----------|-----------|-----------------------|myself some time and
G|-----------|-----------|-----------------------|just say palm mute
D|------7--9-|------7--2-|-----7-9----7-9--10-10-|all the open E notes.
A|------5--7-|------5--0-|-----5-7----5-7---8--8-|
E|-0-0-------|-0-0-------|-0-0------0-----0------|
[ Tab from: http://www.guitartabs.cc/tabs/m/metallica/trapped_under_ice_tab_ver_3.html ]
E|---------------------------------------|
B|---------------------------------------|
G|---------------------------------------|
D|---------------------------------5-4-2-|
A|-2h4--------2h4--------2h4-------3-2-0-|
E|-0h2-222222-0h2-222222-0h2-222222------|
      p.m.---|   p.m.---|   p.m.---|

E|---------------------------|-----------------------|
B|---------------------------|-----------------------|
G|---------------------------|-----------------------|
D|-------12-12--3-2-2-3-2----|--------9--7-----------|
A|-2-----10-10-----3-----3-2-|-2------7--5-----------|
E|-0-000---------------------|-0-000-------6-6666666-|
    p.m.|                       p.m.|        p.m.---|

E|-------------------------------------|
B|-------------------------------------|
G|-------------------------------------|
D|9--9--9----7--7--7----5--5--4--------|
A|7--7--7----5--5--5----3--3--2--5-4-2-|
E|-------------------------------3-2-0-|
                               p.m.-|
Comments