Metallica - Today You Love Chords & Tabs

 

Today You Love Chords & Tabs

Metallica Chords & Tabs

Version: 1 Type: Tab 0 ratings
1 star 2 stars 3 stars 4 stars 5 stars
comments

Today You Love Tab

Band- Metallica
Song- Today You Love
Album- Frantic Single
Tuning- 3 steps down

:---------------------------------------------------|
:---------------------------------------------------|
:---------------------------------------------------|
:--5-----------2------2------2-----2-----2------2-2-|
:--3---5-------2------2------2-----2-----2------2-2-|
:------3---0-0----0-0----0-0---0-0---0-0---0-0--0-0-|

:--------------------------|
:--------------------------|
:--------------------------|
:-7-7-7-7-7-7-7--9-9-9-9-9-|
:-5-5-5-5-5-5-5--7-7-7-7-7-|
:--------------------------|

:--------------------------|
:--------------------------|
:--------------------------|
:-7-7-7-7-7-7-7--9-9-9-9-9-|
:-5-5-5-5-5-5-5--7-7-7-7-7-|
:--------------------------|

:--------------------------|
:--------------------------|
:--------------------------|
:-7-7-7-7-7-7-7--9-9-9-9-9-|
:-5-5-5-5-5-5-5--7-7-7-7-7-|
:--------------------------|

verse
:---------------------------------------------------|
:---------------------------------------------------|
:---------------------------------------------------|
:--5-----------2------2------2-----2-----2------2-2-|
:--3---5-------2------2------2-----2-----2------2-2-|
:------3---0-0----0-0----0-0---0-0---0-0---0-0--0-0-|

:--------------------------|
:--------------------------|
:--------------------------|
:-7-7-7-7-7-7-7--9-9-9-9-9-|
:-5-5-5-5-5-5-5--7-7-7-7-7-|
:--------------------------|

:--------------------------|
:--------------------------|
:--------------------------|
:-7-7-7-7-7-7-7--9-9-9-9-9-|
:-5-5-5-5-5-5-5--7-7-7-7-7-|
:--------------------------|

:--------------------------|
:--------------------------|
:--------------------------|
:-7-7-7-7-7-7-7--9-9-9-9-9-|
:-5-5-5-5-5-5-5--7-7-7-7-7-|
:--------------------------|

:--------------------------|
:--------------------------|
:--------------------------|
:-7-7-7-7-7-7-7--9-9-9-9-9-|
:-5-5-5-5-5-5-5--7-7-7-7-7-|
:--------------------------|
[ Tab from: http://www.guitartabs.cc/tabs/m/metallica/today_you_love_tab.html ]
verse
:---------------------------------------------------|
:---------------------------------------------------|
:---------------------------------------------------|
:--5-----------2------2------2-----2-----2------2-2-|
:--3---5-------2------2------2-----2-----2------2-2-|
:------3---0-0----0-0----0-0---0-0---0-0---0-0--0-0-|

:--------------------------|
:--------------------------|
:--------------------------|
:-7-7-7-7-7-7-7--9-9-9-9-9-|
:-5-5-5-5-5-5-5--7-7-7-7-7-|
:--------------------------|

:--------------------------|
:--------------------------|
:--------------------------|
:-7-7-7-7-7-7-7--9-9-9-9-9-|
:-5-5-5-5-5-5-5--7-7-7-7-7-|
:--------------------------|

:--------------------------|
:--------------------------|
:--------------------------|
:-7-7-7-7-7-7-7--9-9-9-9-9-|
:-5-5-5-5-5-5-5--7-7-7-7-7-|
:--------------------------|

:------------------------------|
:------------------------------|
:------------------------------|
:-7-7-7-7-7-7-7--9--9--9--9--9-|
:-5-5-5-5-5-5-5--7--7--7--7--7-|
:------------------------------|


:---------------------------------|
:---------------------------------|
:---------------------------------|
:----------------7-7-7--9-9-9-9-9-|
:---7-5-7-7-7----5-5-5--7-7-7-7-7-|
:-0-5-3-5-5-5-0-------------------|

        fdbk
:-----------------------------------------|
:-----------------------------------------|
:-----------------------------------------|
:-----------------------------------------|
:---2-------------------------------------|
:-0-0-------------------------------------|


:----------------------------------------------------------------------------------------|
:-4bfp2-4b~~~~~---2-2-2-0---4bfp2-4b~~~~~---2-2-2-0---4bfp2-4b~~~~~---2-2-2-0--4bfp2-----|
:------------------------------------------------------------------------------------0---|
:----------------------------------------------------------------------------------------|
:----------------------------------------------------------------------------------------|
:----------------------------------------------------------------------------------------|

ENJOY!!!!
Comments