Metallica - The Unnamed Feeling Chords & Tabs

 

The Unnamed Feeling Chords & Tabs

Metallica Chords & Tabs

Version: 7 Type: Tab 0 ratings
1 star 2 stars 3 stars 4 stars 5 stars
comments

The Unnamed Feeling Tab

   
Metallica
The unnamed Feeling
Album: St. Anger.
tabbed by: Adrian Esquivel (robo_cr@hotmail.com)

Intro

     w/dist
   D|-------------------|-------------------|
   A|-------------------|-------------------|
   F|-------------------|-------------------|
   C|-0-----------------|-0-----------------|
   G|-0---0---0--0-0-0--|-0---0---0--0-0-0--|
   C|-0---0---0--0-0-0--|-0---0---0--0-0-0--|
        PM...........:      PM...........:
     gtr 1 w/dist
 / D|---------------------------------|----------------------------------|
 | A|---------------------------------|----------------------------------|
 | F|---------------------------------|----------------------------------|
 | C|-0-------------------------------|-0--------------------------------|
 | G|-0-------0------0-------0--0--0--|-0--------0------0-------0--0--0--|
 | C|-0-------0------0-------0--0--0--|-0--------0------0-------0--0--0--|
 |           PM....................:           PM.....................:
 |   gtr 2 clean
 | D|---------------------------------|----------------------------------|
 | A|---------------------------------|----------------------------------|
 | F|--------2--2--2---------7--7--7--|---------2--2--2---------5--5--5--|
 | C|--------0--0--0---------5--5--5--|---------0--0--0---------3--3--3--|
 | G|---0----------------3------------|----0----------------3------------|
 \ C|-0---0----------0/3---3----------|--0---0----------0/3---3----------|
     
     gtr w/dist
 / D|---------------------------------|----------------------------------| \
 | A|---------------------------------|----------------------------------| |
 | F|---------------------------------|----------------------------------| |
 | C|--0------------------------------|--0-------------------------------| |
 | G|--0------0------0-------0---0----|--0------0------0--------0----0---| |
 | C|--0------0------0-------0---0----|--0------0------0--------0----0---| |\
 |	      PM.................:            PM.....................:     | >3 times
 |   gtr 2 clean							   |/
 | D|---------------------------------|----------------------------------| |
 | A|---------------------------------|----------------------------------| |
 | F|--------2--2--2---------7--7--7--|---------2--2--2---------5--5--5--| |
 | C|--------0--0--0---------5--5--5--|---------0--0--0---------3--3--3--| |
 | G|---0----------------3------------|----0----------------3------------| |
 \ C|-0---0----------0/3---3----------|--0---0----------0/3---3----------| /


     gtr w/dist
 / D|---------------------------------|----------------------------------| \
 | A|---------------------------------|----------------------------------| |
 | F|---------------------------------|----------------------------------| |
 | C|--0------------------------------|--0-------------------------------| |
 | G|--0------0------0-------0---0----|--0------0------0--------0----0---| |
 | C|--0------0------0-------0---0----|--0------0------0--------0----0---| |
 |           PM..................:            PM.....................:     | 
 |   gtr 2 clean							   |
 | D|---------------------------------|----------------------------------| |
 | A|---------------------------------|----------------------------------| |\
 | F|--------2--2--2---------7--7--7--|---------2--2--2---------5--5--5--| | > 1
 | C|--------0--0--0---------5--5--5--|---------0--0--0---------3--3--3--| |/
 | G|---0----------------3------------|----0----------------3------------| |
 | C|-0---0----------0/3---3----------|--0---0----------0/3---3----------| |
 |									   |
 |   gtr 3 w/dist							   |
 | D|---------------------------------|----------------------------------| |
 | A|---------------------------------|----------------------------------| |
 | F|---------------------------------|----------------------------------| |
 | C|---------------------------------|----------------------------------| |
 | G|-0-0--0-0----------0--0-0--------|-0-0--0-0-----------0--0-0--------| |
 \ C|-0-0--0-0---2b3r2--0--0-0--2b3r2-|-0-0--0-0----2b3r2--0--0-0--2b3r2-| /
    PM.......:         PM....:        PM.......:         PM.....:

    gtrs 1,2 w/dist
  D|------------------------|------------------------| \
  A|------------------------|------------------------| |
  F|------------------------|------------------------| |>3 times
  C|-8---------7---------0--|-8---------7---------0--| |
  G|-8--(0-0)--7--(0-0)--0--|-8--(0-0)--7--(0-0)--0--| |
  C|-8--(0-0)--7--(0-0)--0--|-8--(0-0)--7--(0-0)--0--| /
       PM..:     PM..:          PM..:     PM..:

Lyrics:       

     Been here before 			 Been here before 
 / D|-----------------|-----------------|-----------------|----------------| \
 | A|-----------------|-----------------|-----------------|----------------| |
 | F|-----------------|-----------------|-----------------|----------------| |
 | C|-----------------|-----------------|-----------------|----------------| |
 | G|-0-0-------------|-0-0-------------|-0-0-------------|-0-0------------| |
 | C|-0-0---1b2b1-----|-0-0---1b2b1-----|-0-0---1b2b1-----|-0-0---1b2b1----| |\
 |  PM..:             PM..:             PM..:             PM..:              | >2 times
 |   gtr 2 w/wah							     |/
 | D|-----13b15r13\1--|-----13b15r13\1--|-----13b15r13\1--|-----13b15r13\1-| |
 | A|-----------------|-----------------|-----------------|----------------| |
 | F|-----------------|-----------------|-----------------|----------------| |
 | C|-----------------|-----------------|-----------------|----------------| |
 | G|-0-0-------------|-0-0-------------|-0-0-------------|-0-0------------| |
 \ C|-0-0-------------|-0-0-------------|-0-0-------------|-0-0------------| /
    PM..:             PM..:             PM..:             PM..:

              Been here before                    Been here before 
  / D|-------|-----------------|-----------------|-----------------|----------------| \
  | A|-------|-----------------|-----------------|-----------------|----------------| |
  | F|-3--2--|-----------------|-----------------|-----------------|----------------| |
  | C|-3--2--|-----------------|-----------------|-----------------|----------------| |
  | G|-1--0--|-0-0-------------|-0-0-------------|-0-0-------------|-0-0------------| |
  | C|-------|-0-0---1b2b1-----|-0-0---1b2b1-----|-0-0---1b2b1-----|-0-0---1b2b1----| |
  |	     PM..:             PM..:             PM..:             PM..:	      |
  |           gtr 2 w/wah							      |
  | D|-------|-----13b15r13\1--|-----13b15r13\1--|-----13b15r13\1--|-----13b15r13\1-| |
  | A|-------|-----------------|-----------------|-----------------|----------------| |
  | F|-3--2--|-----------------|-----------------|-----------------|----------------| |
  | C|-3--2--|-----------------|-----------------|-----------------|----------------| |
  | G|-1--0--|-0-0-------------|-0-0-------------|-0-0-------------|-0-0------------| |
  \ C|-------|-0-0-------------|-0-0-------------|-0-0-------------|-0-0------------| /



      gtrs 1,2 w/dist
    D|-------|---------------------------------|---------------------------------|-------|
    A|-------|---------------------------------|---------------------------------|-------|
    F|-3--2--|---------------------------------|---------------------------------|-3--2--|
    C|-3--2--|---------------------------------|---------------------------------|-3--2--|
    G|-1--0--|-0-0--0-0---------0--0-0---------|-0-0--0-0---------0--0-0---------|-1--0--|
    C|-------|-0-0--0-0--2b3r2--0--0-0--2b3r2--|-0-0--0-0--2b3r2--0--0-0--2b3r2--|-------|
              PM......:        PM....:         PM.......:        PM....: 
   VERSE 1
 Been here before couldn't say I liked it_Do I start writing all this down?
 Just let me plug you into my world_Can't you help me be uncrazy?
D|---------------------------------|---------------------------------|-------|
A|---------------------------------|---------------------------------|-------|
F|---------------------------------|---------------------------------|-3--2--|
C|---------------------------------|---------------------------------|-3--2--|
G|-0-0--0-0---------0--0-0---------|-0-0--0-0---------0--0-0---------|-1--0--|
C|-0-0--0-0--2b3r2--0--0-0--2b3r2--|-0-0--0-0--2b3r2--0--0-0--2b3r2--|-------|
  PM......:        PM....:          PM......:        PM....:

 Name this for me, heat the cold air_Take the chill off of my life 
 And if I could I'd turn my eyes_To look inside to see what's comin' 
D|---------------------------------|---------------------------------|         |-------|
A|---------------------------------|---------------------------------|	       |-------|
F|---------------------------------|---------------------------------| 2 times,|-3--2--|
C|---------------------------------|---------------------------------| then--> |-3--2--|
G|-0-0--0-0---------0--0-0---------|-0-0--0-0---------0--0-0---------|         |-1--0--|
C|-0-0--0-0--2b3r2--0--0-0--2b3r2--|-0-0--0-0--2b3r2--0--0-0--2b3r2--|         |-------|
  PM......:        PM....:          PM......:        PM....:
  PRE-CHORUS
   
  It comes alive         It comes alive           It comes alive_ And I die a little more 
D|-----------|-----------|-----------|-----------|-----------|-----------|-----------|
A|-----------|-----------|-----------|-----------|-----------|-----------|-----------|
F|-----------|-----------|-----------|-----------|-----------|-----------|-----------|
C|-----------|-----------|-----------|-----------|-----------|-----------|-----------|
G|-0-0-------|-0-0-------|-0-0-------|-0-0-------|-0-0-------|-0-0-------|-0-0-------|
C|-0-0-1b2b1-|-0-0-1b2b1-|-0-0-1b2b1-|-0-0-1b2b1-|-0-0-1b2b1-|-0-0-1b2b1-|-0-0-1b2b1-|
 PM..:       PM..:       PM..:       PM..:       PM..:       PM..:       PM..: 

  It comes alive         It comes alive          It comes alive Each moment here 
D|-----------|-----------|-----------|-----------|-----------|-----------|-------|
A|-----------|-----------|-----------|-----------|-----------|-----------|-------|
F|-----------|-----------|-----------|-----------|-----------|-----------|-3--2--|
C|-----------|-----------|-----------|-----------|-----------|-----------|-3--2--|
G|-0-0-------|-0-0-------|-0-0-------|-0-0-------|-0-0-------|-0-0-------|-1--0--|
C|-0-0-1b2b1-|-0-0-1b2b1-|-0-0-1b2b1-|-0-0-1b2b1-|-0-0-1b2b1-|-0-0-1b2b1-|-------|
 PM..:       PM..:       PM..:       PM..:       PM..:       PM..:       PM..:

   I die a little more                 I die, I die,  I die a little more
D|---------------------------------|---------------------------------|-------|
A|---------------------------------|---------------------------------|-------|
F|---------------------------------|---------------------------------|-3--2--|
C|---------------------------------|---------------------------------|-3--2--|
G|-0-0--0-0---------0--0-0---------|-0-0--0-0---------0--0-0---------|-1--0--|
C|-0-0--0-0--2b3r2--0--0-0--2b3r2--|-0-0--0-0--2b3r2--0--0-0--2b3r2--|-------|
  PM......:        PM....:          PM......:        PM....:

  CHORUS (gtrs clean or acoustic)

 Then the unnamed feeling                         It comes alive 
D|--------------------------3--3--3-------------------------------------------|
A|--------3--3--3-----------6--6--6---------6--6--6---------------------------|
F|--------2--2--2-----------5--5--5---------5--5--5-----------------5--7-7-5--|
C|--------0--0--0-----5---------------------3--3--3-------------5---5--5-5-5--|
G|---0--------------3---3----------------3-----------8--7--5--3---3-----------|
C|-0---0-------------------------------3---3---------8--7--5------------------|
 

 Then the unnamed feeling                              Takes me away
D|-------------------------3--3--3----------------------------------|
A|--------3--3--3----------6--6--6---------6--6--6---------8--8--8--|
F|--------2--2--2----------5--5--5---------5--5--5---------7--7--7--|
C|--------0--0--0-----5--------------------3--3--3---------5--5--5--|
G|---0--------------3---3--------------3----------------5-----------|
C|-0---0-----------------------------3---3-----------/5---5---------|

    
    Been here before 			 Been here before 
 / D|-----------------|-----------------|-----------------|----------------| \
 | A|-----------------|-----------------|-----------------|----------------| |
 | F|-----------------|-----------------|-----------------|----------------| |
 | C|-----------------|-----------------|-----------------|----------------| |
 | G|-0-0-------------|-0-0-------------|-0-0-------------|-0-0------------| |
 | C|-0-0---1b2b1-----|-0-0---1b2b1-----|-0-0---1b2b1-----|-0-0---1b2b1----| |\
 |  PM..:             PM..:             PM..:             PM..:              | >2 times
 |   gtr 2 w/wah							     |/
 | D|-----13b15r13\1--|-----13b15r13\1--|-----13b15r13\1--|-----13b15r13\1-| |
 | A|-----------------|-----------------|-----------------|----------------| |
 | F|-----------------|-----------------|-----------------|----------------| |
 | C|-----------------|-----------------|-----------------|----------------| |
 | G|-0-0-------------|-0-0-------------|-0-0-------------|-0-0------------| |
 \ C|-0-0-------------|-0-0-------------|-0-0-------------|-0-0------------| /
    PM..:             PM..:             PM..:             PM..:       

              Been here before                    Been here before 
  / D|-------|-----------------|-----------------|-----------------|----------------| \
  | A|-------|-----------------|-----------------|-----------------|----------------| |
  | F|-3--2--|-----------------|-----------------|-----------------|----------------| |
  | C|-3--2--|-----------------|-----------------|-----------------|----------------| |
  | G|-1--0--|-0-0-------------|-0-0-------------|-0-0-------------|-0-0------------| |
  | C|-------|-0-0---1b2b1-----|-0-0---1b2b1-----|-0-0---1b2b1-----|-0-0---1b2b1----| |
  |	     PM..:             PM..:             PM..:             PM..:              |
  |           gtr 2 w/wah							      |
  | D|-------|-----13b15r13\1--|-----13b15r13\1--|-----13b15r13\1--|-----13b15r13\1-| |
  | A|-------|-----------------|-----------------|-----------------|----------------| |
  | F|-3--2--|-----------------|-----------------|-----------------|----------------| |
  | C|-3--2--|-----------------|-----------------|-----------------|----------------| |
  | G|-1--0--|-0-0-------------|-0-0-------------|-0-0-------------|-0-0------------| |
  \ C|-------|-0-0-------------|-0-0-------------|-0-0-------------|-0-0------------| /
             PM..:             PM..:             PM..:             PM..: 


 VERSE 2

 I'm frantic in your soothing arms_I can not sleep in this down filled world 
 I've found safety in this loneliness_But I cannot stand it anymore 
D|---------------------------------|---------------------------------|-------|
A|---------------------------------|---------------------------------|-------|
F|---------------------------------|---------------------------------|-3--2--|
C|---------------------------------|---------------------------------|-3--2--|
G|-0-0--0-0---------0--0-0---------|-0-0--0-0---------0--0-0---------|-1--0--|
C|-0-0--0-0--2b3r2--0--0-0--2b3r2--|-0-0--0-0--2b3r2--0--0-0--2b3r2--|-------|
  PM......:        PM....:          PM......:        PM....:
[ Tab from: http://www.guitartabs.cc/tabs/m/metallica/the_unnamed_feeling_tab_ver_7.html ]
 Cross my heart and hope not to die_Swallow evil, ride the sky
 Lose myself in a crowded room_You fool, you fool, it will be here soon  
D|---------------------------------|---------------------------------|         |-------|
A|---------------------------------|---------------------------------|	       |-------|
F|---------------------------------|---------------------------------| 2 times,|-3--2--|
C|---------------------------------|---------------------------------| then--> |-3--2--|
G|-0-0--0-0---------0--0-0---------|-0-0--0-0---------0--0-0---------|         |-1--0--|
C|-0-0--0-0--2b3r2--0--0-0--2b3r2--|-0-0--0-0--2b3r2--0--0-0--2b3r2--|         |-------|
  PM......:        PM....:          PM......:        PM....:

   PRE-CHORUS
   
  It comes alive         It comes alive           It comes alive_ And I die a little more 
D|-----------|-----------|-----------|-----------|-----------|-----------|-----------|
A|-----------|-----------|-----------|-----------|-----------|-----------|-----------|
F|-----------|-----------|-----------|-----------|-----------|-----------|-----------|
C|-----------|-----------|-----------|-----------|-----------|-----------|-----------|
G|-0-0-------|-0-0-------|-0-0-------|-0-0-------|-0-0-------|-0-0-------|-0-0-------|
C|-0-0-1b2b1-|-0-0-1b2b1-|-0-0-1b2b1-|-0-0-1b2b1-|-0-0-1b2b1-|-0-0-1b2b1-|-0-0-1b2b1-|
 PM..:       PM..:       PM..:       PM..:       PM..:       PM..:       PM..: 

  It comes alive         It comes alive          It comes alive Each moment here 
D|-----------|-----------|-----------|-----------|-----------|-----------|-------|
A|-----------|-----------|-----------|-----------|-----------|-----------|-------|
F|-----------|-----------|-----------|-----------|-----------|-----------|-3--2--|
C|-----------|-----------|-----------|-----------|-----------|-----------|-3--2--|
G|-0-0-------|-0-0-------|-0-0-------|-0-0-------|-0-0-------|-0-0-------|-1--0--|
C|-0-0-1b2b1-|-0-0-1b2b1-|-0-0-1b2b1-|-0-0-1b2b1-|-0-0-1b2b1-|-0-0-1b2b1-|-------|
 PM..:       PM..:       PM..:       PM..:       PM..:       PM..:       PM..:

   I die a little more                 I die, I die,  I die a little more
D|---------------------------------|---------------------------------|-------|
A|---------------------------------|---------------------------------|-------|
F|---------------------------------|---------------------------------|-3--2--|
C|---------------------------------|---------------------------------|-3--2--|
G|-0-0--0-0---------0--0-0---------|-0-0--0-0---------0--0-0---------|-1--0--|
C|-0-0--0-0--2b3r2--0--0-0--2b3r2--|-0-0--0-0--2b3r2--0--0-0--2b3r2--|-------|
  PM......:        PM....:          PM......:        PM....:
 
 CHORUS 2 (gtrs clean or acoustic)

 Then the unnamed feeling 				It comes alive
D|--------------------------3--3--3-------------------------------------------|
A|--------3--3--3-----------6--6--6---------6--6--6---------------------------|
F|--------2--2--2-----------5--5--5---------5--5--5-----------------5--7-7-5--|
C|--------0--0--0-----5---------------------3--3--3-------------5---5--5-5-5--|
G|---0--------------3---3----------------3-----------8--7--5--3---3-----------|
C|-0---0-------------------------------3---3---------8--7--5------------------|

 Then the unnamed feeling				Treats me this way 
D|--------------------------3--3--3--------------------------------------------------|
A|--------3--3--3-----------6--6--6---------6--6--6---------5--5--5---------6--6--6--|
F|--------2--2--2-----------5--5--5---------5--5--5---------4--4--4---------5--5--5--|
C|--------0--0--0-----5---------------------3--3--3---------2--2--2---------3--3--3--|
G|---0--------------3---3--------------3----------------2---------------3------------|
C|-0---0-----------------------------3---3------------2---2-----------3---3----------|

 And I wait for this train 			Toes over the line 
D|--------------------------3--3--3-------------------------------------------|
A|--------3--3--3-----------6--6--6---------6--6--6---------------------------|
F|--------2--2--2-----------5--5--5---------5--5--5-----------------5--7-7-5--|
C|--------0--0--0-----5---------------------3--3--3-------------5---5--5-5-5--|
G|---0--------------3---3----------------3-----------8--7--5--3---3-----------|
C|-0---0-------------------------------3---3---------8--7--5------------------|
 
 And then the unnamed feeling 				   Takes me away 
D|--------------------------3--3--3--------------------------------------------------|
A|--------3--3--3-----------6--6--6---------6--6--6---------5--5--5---------6--6--6--|
F|--------2--2--2-----------5--5--5---------5--5--5---------4--4--4---------5--5--5--|
C|--------0--0--0-----5---------------------3--3--3---------2--2--2---------3--3--3--|
G|---0--------------3---3--------------3----------------2---------------3------------|
C|-0---0-----------------------------3---3------------2---2-----------3---3----------|
  
 Takes me  
D|------------------|
A|---------8--8--8--|
F|---------7--7--7--|
C|---------5--5--5--|
G|----5-------------|
C|--5---5-----------|
 
 (gtrs w/dist)
 Then the unnamed feeling		It comes alive 
D|---------------------------------------------------|
A|---------------------------------------------------|
F|--------------5----------------3-2-0------------5--|
C|----------0---5----------------0-0-0----5-5-5-5-5--|
G|-0-0-0-0--0---3---0-3--330--3--0-0-0--3-3-3-3-3-3--|
C|-0-0-0-0--0-------0-3--330--3--0-0-0---------------|
     PM..:          PM.....:            PM......:

 Then the unnamed feeling 	  Takes me away   yeah           Takes me away 
D|-----------------------------------------------------------------------------------------|
A|-----------------------------------------------------------------------------------------|
F|--------------5--------------------------------------------------------------------------|
C|--------------5----------------2------2------2----3------3------3----5------5------5-----|
G|-0-0-0-0--0---3---0-3--330--3--2------2------2----3------3------3----5------5------5-----|
C|-0-0-0-0--0-------0-3--330--3--2-2222-2-2222-2-22-3-3333-3-3333-3-33-5-5555-5-5555-5-55--|
      PM....:       PM......:    PM...:......:....:......:......:....:......:......:....:


   BRIDGE 1

  gtr 1 
D|---------------------------------| \
A|---------------------------------| |
F|---------------------------------| |
C|---------------------------------| |
G|-0-0--0-0---3-2---0-0--0-0--3-2--| |
C|-0-0--0-0---3-2---0-0--0-0--3-2--| |
  Pm............................:    |\
  				     | > 4 times
  gtr 2                              |/
D|---------------------------------| |
A|-----------9---------------------| |
F|-----------11b13-----------------| |
C|---------------------------------| |
G|---------------------------------| | 
C|---------------------------------| /

  gtrs 1,2
D|----------------|----------------|----------------|----------------|
A|----------------|----------------|----------------|----------------|
F|----------------|----------------|----------------|----------------|
C|----------------|----------------|----------------|----------------|
G|-0-0--0-0--3-2--|-0-0--0-0--3-2--|-0-0--0-0--3-2--|-0-0--0-0--3-2--|
C|-0-0--0-0--3-2--|-0-0--0-0--3-2--|-0-0--0-0--3-2--|-0-0--0-0--3-2--|
  PM...........:................:................:................:

    Get the fuck out of here I just wanna get the fuck away from me 
    I rage, I glaze, I hurt, I hate It hate it all, why? Why? Why me?
    I cannot sleep wth a head like this I wanna cry, I wanna scream 
 / D|----------------|----------------|----------------|-----------------|
 | A|----------------|----------------|----------------|-----------------|
 | F|----------------|----------------|----------------|-----------------|
 | C|----------------|----------------|----------------|-----------------|
 | G|-0-0--0-0--3-2--|-0-0--0-0--3-2--|-0-0--0-0--3-2--|-0-0--0-0--3-2---|
 | C|-0-0--0-0--3-2--|-0-0--0-0--3-2--|-0-0--0-0--3-2--|-0-0--0-0--3-2---|
 |   PM...........:................:................:................:
 |   gtr 2 clean
 | D|---------------------------------|----------------------------------|
 | A|---------------------------------|----------------------------------|
 | F|--------2--2--2---------7--7--7--|---------2--2--2---------5--5--5--|
 | C|--------0--0--0---------5--5--5--|---------0--0--0---------3--3--3--|
 | G|---0----------------3------------|----0----------------3------------|
 \ C|-0---0----------0/3---3----------|--0---0----------0/3---3----------|
    
    rage, I glaze, I hurt, I hate    I wanna hate it all away 
  D|---------------------------------|----------------------------------|-----|
  A|---------------------------------|----------------------------------|-----|
  F|--------2--2--2---------7--7--7--|---------2--2--2---------5--5--5--|-3-2-|
  C|--------0--0--0---------5--5--5--|---------0--0--0---------3--3--3--|-3-2-|
  G|---0----------------3------------|----0----------------3------------|-1-0-|
  C|-0---0----------0/3---3----------|--0---0----------0/3---3----------|-----|


   BRIDGE 2

D|--------------|---------|
A|--------------|---------| \
F|--------------|--3---2--|  > 3 times
C|--------------|--3---2--| /
G|------0--0-0--|--1---0--|
C|-3p0--0--0-0--|---------|
       PM....:

D|------------------------------|---------|
A|------------------------------|---------|
F|------------------------------|--3---2--|
C|------------------------------|--3---2--|
G|---8---7---0-----8---7---0-0--|--1---0--|
C|-0-8-0-7-0-0---0-8-0-7-0-0-0--|---------|
 PM.   .   .     .   .   ....:

D|--------------|---------|
A|--------------|---------| \
F|--------------|--3---2--|  > 2 times
C|--------------|--3---2--| /
G|------0--0-0--|--1---0--|
C|-3p0--0--0-0--|---------|
       PM....:

D|--------------|--------------|--------------|--------------|---------|
A|--------------|--------------|--------------|--------------|---------|
F|--------------|--------------|--------------|--------------|--3---2--|
C|--------------|--------------|--------------|--------------|--3---2--|
G|------0--0-0--|------0--0-0--|------0--0-0--|------0--0-0--|--1---0--|
C|-3p0--0--0-0--|-3p0--0--0-0--|-3p0--0--0-0--|-3p0--0--0-0--|---------|
       PM....:        PM....:        PM....:        PM....:

     gtr 2 w/wah
 / D|------13b15r13\1-----|------13b15r13\1----|------13b15r13\1----|------13b15r13\1--| \
 | A|---------------------|--------------------|--------------------|------------------| |
 | F|---------------------|--------------------|--------------------|------------------| |
 | C|---------------------|--------------------|--------------------|------------------| |
 | G|---------------------|--------------------|--------------------|------------------| |
 | C|-0000----------------|-0000---------------|-0000---------------|-0000-------------| |
 |   PM..:                PM...:               PM...:               PM...:	       |  > 2 times
 |   gtr 1 w/dist				                 	               | |
 | D|---------------------|--------------------|--------------------|------------------| |
 | A|---------------------|--------------------|--------------------|------------------| |
 | F|---------------------|--------------------|--------------------|------------------| |
 | C|---------------------|--------------------|--------------------|------------------| |
 | G|---------------------|--------------------|--------------------|------------------| |
 \ C|-0000---1b2b1--------|-0000---1b2b1-------|-0000---1b2b1-------|-0000---1b2b1-----| /
     PM..:                PM...:               PM...:               PM...:

  gtr 2 w/wah
 / D|------13b15r13\1--15\---|------13b15r13\1--15\---|------13b15r13\1--15\--13\--15\| 
 | A|------------------------|------------------------|-------------------------------| 
 | F|------------------------|------------------------|-------------------------------| 
 | C|------------------------|------------------------|-------------------------------| 
 | G|------------------------|------------------------|-------------------------------| 
 | C|-0000-------------------|-0000-------------------|-0000--------------------------| 
 |  PM...:                   PM...:                   PM...:
 |
 |   gtr 1 w/dist
 | D|------------------------|------------------------|-------------------------------|
 | A|------------------------|------------------------|-------------------------------|
 | F|------------------------|------------------------|-------------------------------|
 | C|------------------------|------------------------|-------------------------------|
 | G|------------------------|------------------------|-------------------------------|
 \ C|-0000---1b2b1-----------|-0000---1b2b1-----------|-0000---1b2b1--1b2b1--1b2b1----|
    PM...:                   PM...:                   PM...:
D|-----------|-----------|-----------|-----------|
A|-----------|-----------|-----------|-----------|
F|-----------|-----------|-----------|-----------|
C|-----------|-----------|-----------|-----------|
G|-0-0-------|-0-0-------|-0-0-------|-0-0-------|
C|-0-0-1b2b1-|-0-0-1b2b1-|-0-0-1b2b1-|-0-0-1b2b1-|
 PM..:       PM..:       PM..:       PM..: 

   LAST CHORUS

         Then the unnamed feeling      It comes alive 
D|---------------------------------------------------|
A|---------------------------------------------------|
F|--------------5----------------3-2-0------------5--|
C|----------0---5----------------0-0-0----5-5-5-5-5--|
G|-0-0-0-0--0---3---0-3--330--3--0-0-0--3-3-3-3-3-3--|
C|-0-0-0-0--0-------0-3--330--3--0-0-0---------------|
     PM..:          PM........:          PM.....: 
 
  Then the unnamed feeling         Treats me this way 
D|----------------------------------------------------------------|
A|----------------------------------------------------------------|
F|--------------5-------------------------------------------------|
C|--------------5----------------2------2------2----3---2-3-5-3-2-|
G|-0-0-0-0--0---3---0-3--330--3--2------2------2----3---2-3-5-3-2-|
C|-0-0-0-0--0-------0-3--330--3--2-2222-2-2222-2-22-3---2-3-5-3-2-|
     PM....:        PM......:     PM...............:

  And I wait for this train     Toes over the line 
D|---------------------------------------------------|
A|---------------------------------------------------|
F|--------------5----------------3-2-0------------5--|
C|----------0---5----------------0-0-0----5-5-5-5-5--|
G|-0-0-0-0--0---3---0-3--330--3--0-0-0--3-3-3-3-3-3--|
C|-0-0-0-0--0-------0-3--330--3--0-0-0---------------|
      PM...:       PM......:             PM.....:

  And then the unnamed feeling         Takes me away   yeah           Takes me away
D|-----------------------------------------------------------------------------------------|
A|-----------------------------------------------------------------------------------------|
F|--------------5--------------------------------------------------------------------------|
C|--------------5----------------2------2------2----3------3------3----5------5------5-----|
G|-0-0-0-0--0---3---0-3--330--3--2------2------2----3------3------3----5------5------5-----|
C|-0-0-0-0--0-------0-3--330--3--2-2222-2-2222-2-22-3-3333-3-3333-3-33-5-5555-5-5555-5-55--|
     PM.....:        PM.....:     PM....................................................:

                    Then the unnamed feeling                     It comes alive 
D|--------------------------3--3--3-------------------------------------------|
A|--------3--3--3-----------6--6--6---------6--6--6---------------------------|
F|--------2--2--2-----------5--5--5---------5--5--5-----------------5--7-7-5--|
C|--------0--0--0-----5---------------------3--3--3-------------5---5--5-5-5--|
G|---0--------------3---3----------------3-----------8--7--5--3---3-----------|
C|-0---0-------------------------------3---3---------8--7--5------------------|
       
           Then the unnamed feeling           Takes me away
D|-------------------------3--3--3----------------------------------|
A|--------3--3--3----------6--6--6---------6--6--6---------8--8--8--|
F|--------2--2--2----------5--5--5---------5--5--5---------7--7--7--|
C|--------0--0--0-----5--------------------3--3--3---------5--5--5--|
G|---0--------------3---3--------------3----------------5-----------|
C|-0---0-----------------------------3---3-----------/5---5---------|


Symbols

PM...:=Palm mute
/= slide up
\= slide Down
b= bend
r= release
p= pull-off
Comments