Metallica - The Unforgivin Intro My Way Chords & Tabs

 

The Unforgivin Intro My Way Chords & Tabs

Metallica Chords & Tabs

Version: 1 Type: Tab 2 ratings
1 star 2 stars 3 stars 4 stars 5 stars
comments

The Unforgivin Intro My Way Tab

i didnt like the other tabs on dis site for dis song so i decided to submit my own so rate me after 
u try it


/= slide





-------------------------------------------------------------
-------------------------------------------------------------
--2--4-4/5-----5-4-2-----2--4--4/5--5--2--2------------------                      2x
-------------------------------------------------------------
-------------------------------------------------------------
-------------------------------------------------------------

[ Tab from: http://www.guitartabs.cc/tabs/m/metallica/the_unforgivin_intro_my_way_tab.html ]
-------------------------------------------------------------
-------------------------------------------------------------
-2--4-4/5--5--5--5--4--0-0--0--0--2--4--2--------------------
-------------------------------------------------------------
-------------------------------------------------------------
-------------------------------------------------------------


-------------------------------------------------------------
------------5--5--5--4---------------------------------------
-2--4--4/5--------------0--0--0--0--4--0--2------------------
-------------------------------------------------------------
-------------------------------------------------------------
-------------------------------------------------------------
Comments