Metallica - The Unforgiven (intro) Chords & Tabs

 

The Unforgiven (intro) Chords & Tabs

Metallica Chords & Tabs

Version: 1 Type: Tab 1 rating
1 star 2 stars 3 stars 4 stars 5 stars
comments

The Unforgiven (intro) Tab

   
Gtr 1: Acoustic/Rythm "James Hetfield" 
Gtr 2: Clean Electric/Lead "Kirk Hammet"

Gtr 1
e-----------------
B-0--0--0--0--1---
G--2--2--2--2--2-- X4
D---2--2--2--2--2-
A-0---------------
E-----------------

Gtr 1
e-----------------
B-0--0--0--1--1---
G--2--2--2--2--2--
D---2--2--2--2--2-
A-0---------------
E-----------------

Gtr 2
e----------------------
B----------------------
G----------------------
D----------------------
A-12-14-14h15-15-14-12-
E----------------------

Gtr 1
e-----------------
B-0--0--1--1--1---
G--2--2--2--2--2-- 
D---2--2--2--2--2-
A-0---------------
E-----------------

Gtr 2
e-------------------
B-------------------
G-------------------
D-------------------
A-12-14-14h15-15-12-
E-------------------

Gtr 1
e-----------------
B-0--0--0--1--1---
G--2--2--2--2--2--
D---2--2--2--2--2-
A-0---------------
E-----------------

Gtr 2
e----------------------
B----------------------
G----------------------
D----------------------
A-12-14-14h15-15-14-12-
E----------------------

Gtr 1
e-----------------
B-0--0--1--1--1---
G--2--2--2--2--2-- 
D---2--2--2--2--2-
A-0---------------
E-----------------

Gtr 2
e-------------------
B-------------------
G-------------------
D-------------------
A-12-14-14h15-15-12-
E-------------------
[ Tab from: http://www.guitartabs.cc/tabs/m/metallica/the_unforgiven_intro_tab.html ]
Gtr 1
e-----------------------------------------------------------
B--------0--1-------1-----1---------------------------------
G------2----------------------------0----0--------2-2h4-2~~-
D----2-----------2-----2----------0--------2--2-2-----------
A--0-----------3--------------------------------------------
E------------------------------3-------3--------------------

e--------------------------------------------------------
B--------------------------------------------------------
G--------------------------------------------------------
D--------------------------------------------------------
A-12-14-14h15-15--15-15-15-15-14----14-11----12-12h14-12-
E--------------------------------15-------12-------------

Gtr 1                                  
e----------------------0---0--------------------------------
B-----------0--1----------1----1--3--0-----3----------------
G---------2----------------------------------1--1--4--1-2h4-
D------2------------2---------------------------------------
A-----------------3-----------------------------------------
E--5------------------------------------3-------------------

Gtr 2                                           
e------------------------------------------------------
B------------------------------------------------------
G------------------------------------------------------
D-------------15--15-15-15-15-13-----------------------
A-12-14-14h15--------------------14/11/14--12h14p12-12~
E------------------------------------------------------

Gtr 1
e-----------------
B-0--0--0--0--1---
G--2--2--2--2--2-- X2
D---2--2--2--2--2-
A-0---------------
E-----------------

Gtr 2
e--------------------------------------
B--------------------------------------
G--------------------------------------
D--------------------------------------
A-~~~~~~~~~~~~~~~~~~~~~~~~~~~~~~~~~~~~-
E--------------------------------------
Comments