Metallica - The Small Hours Chords & Tabs

 

The Small Hours Chords & Tabs

Metallica Chords & Tabs

Version: 3 Type: Tab 0 ratings
1 star 2 stars 3 stars 4 stars 5 stars
comments

The Small Hours Tab

hey people i'm sure this is correct
----------------------------------------------------------------
----7----8-----7-----8------7-----8-----7-----8-----------------
-10---10---10----10-----10----10----10-----10-------------------
----------------------------------------------------------------
----------------------------------------------------------------
----------------------------------------------------------------
                                                                 
----------------------------------------------------------------
-----6-----7----6------7------6------7-----6----7---------------
--9-----9----9-----9------9------9------9----9------------------
----------------------------------------------------------------
----------------------------------------------------------------
----------------------------------------------------------------
  this is the main riff below                                                               
------------------------|             ---------------------------|
------------------------|             ---------------------------|
------------------------|             ---------------------------|
------------------------|play 3x)then ---------------------------|
-2--2--4/5--4/5-2--2-5--|             --5--4---4--3--------------|
-0--0--2/3--2/3-0--0-3--|             --3--2---2--1--------------|


------------------------------------------------------------------|
------------------------------------------------------------------|
--------------4/7---4------4-----------/\-------------------------|
--------------------------------------/--\------------------------|
-x--x--2---0--2/5---2---0--2---0-----/----\-----------------------|
-x--x--0---------------------------2/------\----------------------|
                                     1/2 bend
------------------------------------------------------------------|
------------------------------------------------------------------|
--------------4/7---4------9--x---9/11--9-------------------------|
------------------------------------------------------------------|
-x--x--2---0--2/5---2---0--7--x---7/9---7-------------------------|
-x--x--0----------------------------------------------------------|

i dont have it all tabbed but i hope it helps
[ Tab from: http://www.guitartabs.cc/tabs/m/metallica/the_small_hours_tab_ver_3.html ]
Comments