Metallica - The Shortest Straw Chords & Tabs

 

The Shortest Straw Chords & Tabs

Metallica Chords & Tabs

Version: 2 Type: Tab 1 rating
1 star 2 stars 3 stars 4 stars 5 stars
comments

The Shortest Straw Tab

   
#----------------------------------PLEASE NOTE---------------------------------#
#This file is the author's own work and represents their interpretation of the #
#song. You may only use this file for private study, scholarship, or research. #
#------------------------------------------------------------------------------##
                              KEY IS AT THE BOTTOM
                This is the best tab on this song you can possibly get!

Rhy.Fig.2

E5     1/2                         E5 G5  E5 G5|E5     1/2                        E5 F5  E5 F5
--------)-----|-------------------------------|--------)-----|-------------------------------|
--------)-----|-------------------------------|--------)-----|-------------------------------|
-------)------|-------------------------------|-------)------|-------------------------------|
-2--8-7---8---|--------------------2--5---2--5|-2--8-7---8---|--------------------2--3---2--3|
-2/7--------7-|--------------------2--5---2--5|-2/7--------7-|--------------------2--3---2--3|                  
-0------------|0--0---0-0---0--0---0--3---0--3|-0------------|0--0---0-0---0--0---0--1---0--1|
[ Tab from: http://www.guitartabs.cc/tabs/m/metallica/the_shortest_straw_tab_ver_2.html ]
E5     1/2                         E5 G5  E5 G5|E5     1/2                        E5 A5  E5 A5
--------)-----|-------------------------------|--------)-----|-------------------------------|
-------)------|-------------------------------|-------)------|-----------------------2------2|
-2--8-7---8---|--------------------2--5---2--5|-2--8-7---8---|--------------------2--2---2--2|
-2/7--------7-|--------------------2--5---2--5|-2/7--------7-|--------------------2--0---2--0|
-0------------|0--0---0-0---0--0---0--3---0--3|-0------------|0--0---0-0---0--0---0------0---|

 E5          H  P P               H P P    H P P   E5                F5
------------.......-|----------------------------|--------------------|
-----------(       )|----------------------------|--------------------|
--------3---2--3-2-0|-4---4---4---.....----.....-|-9-------9-----9--10|
-2----2-------------|-4---4---4--(-----)--(-----)|-9-------9-----9--10|
-2--0---------------|-2---2---2--2-3-2-0--2-3-2-0|-7-------7-----7---8|
-0------------------|----------------------------|--------------------|

 B5 C5       H P P        H P P        A5            F5 B5 C5       H  P P        H  P P
-------------------------------------|----------------|-------------------------------------|
-------------------------------------|----------------|-------------------------------------|
-4//5--5----..........---..........--|-----------9//10|-4//5--5----..........---..........--|
-4//5--5---(----------)-(----------)-|-7----7----9//10|-4//5--5---(----------)-(----------)-|
-2//3--3----2--3--2--0---2--3--2--0--|-7----7----7//8 |-2//3--3----2--3--2--0---2--3--2--0--|
-------------------------------------|-5----5---------|-------------------------------------|
                                                *KEY*

slide fowrword and back.     Bend 1/2(1frets)      
|-4//5-|                     |--------)--|
|-4//5-|                     |--------)--|
|-2//3-|                     |-------)---|
|------|                     |------7----|

*Note*read the chords so there is no confussion...
After this there is a solo pretty much all the way to the end
Comments