Metallica - The More I See Chords & Tabs

 

The More I See Chords & Tabs

Metallica Chords & Tabs

Version: 2 Type: Bass Tab 0 ratings
1 star 2 stars 3 stars 4 stars 5 stars
comments

The More I See Bass Tab

Song: The More I See	
Band: MetallicA (Original Kelvin Morris, Roy Wainwright, Garry
                  Moloney, Peter Purtill)
Album: Garage Inc.

Transcribed By Eros Fratini (e-r-o-s@libero.it)
Tune down 1 1/2 step (Final 1/2 step down)
------------------------------ Bass Tab -------------------------------
Time 4/4
beat 192     

Intro:
:--------------------------------|--------------------------------|
:--------------------------------|*-------------------------------|
:--------------------------------|*-------------------------------|
:-----------------------------6--|-6-p-5---6-p-5---6-p-5-------3--|

                                 |Fig.1
|--------------------------------|--------------------------------|
|--------------------------------|--------------------------------|
|--------------------------------|--------------------------------|
|-----0---0---0---0---0---0---6--|-6-p-5---6-p-5---6-p-5---x---3--|
 
 1. -6.                 end Fig.1| 7.       
|--------------------------------|--------------------------------|
|-------------------------------*|--------------------------------|
|-------------------------------*|--------------------------------|
|-----0---0---0---0---0---0---6--|-----0---0---0---0---0---0---6--|

Repeat Fig.1 x 10

Verse 1, 2:
   
   Repeat Fig.1 x 4

Chorus:
:Fig.2                                                   end Fig.2|
:--------------------------------|--------------------------------| x 3
:--------------------------------|--------------------------------|
:--------------------------------|--------------------------------|
:-----0---0---0---0---0---0---5--|-----0---0---0---0---0---0---6--|

 1.
|--------------------------------|--------------------------------|
|--------------------------------|--------------------------------|
|--------------------------------|--------------------------------|
|-----0---0---0---0---0---0---5--|-----0---0---0---0---0---0---6--|

 Repeat Fig.1 x 4
 Repeat Verse 

 2.
|--------------------------------|--------------------------------:
|--------------------------------|--------------------------------:
|--------------------------------|--------------------------------:
|-----0---0---0---0---0---0---5--|-----0---0---0---0---0---0---0--:

Interlude:
:--------------------------------|--------------------------------|
:*-------------------------------|--------------------------------|
:*-------------------------------|--------------------------------|
:-6-------6---6---6---6---6---6--|-6---6---6---6---6---6---6---5--|

|--------------------------------|--------------------------------|
|--------------------------------|--------------------------------|
|-7-------7---7---7---7---7---7--|-7-/10--10--10--10--10---7---0--|
|--------------------------------|--------------------------------|

|--------------------------------|--------------------------------|
|--------------------------------|--------------------------------|
|--------------------------------|--------------------------------|
|-6-------6---6---6---6---6---6--|-6---6---6---6---6---6---6---5--|

 1.                              |2.
|--------------------------------|--------------------------------:
|-------------------------------*|--------------------------------:
|-------------------------------*|-7---7---7---7---7---7----------:
|-0---0---0---0---0---0---0---0--|-------------------------0---6--:

Repeat Fig.1 x 4

Chorus:

   Repeat Fig.2 x 4
   Repeat Fig.1 x 4

Interlude:
 
   Repeat Fig.1 x 4
   Repeat Fig.2 x 2

Chorus:

   Repeat Fig.2 x 3 then:
|--------------------------------|--------------------------------|
|--------------------------------|--------------------------------|
|--------------------------------|--------------------------------|
|-----0---0---0---0---0---0---5--|-----0---0---0---0---3---5---6--|

Outro:
[ Tab from: http://www.guitartabs.cc/tabs/m/metallica/the_more_i_see_btab_ver_2.html ]
   Repeat Fig.1 x 7 then:
|--------------------------------|----|----|----:
|--------------------------------|----|----|----:
|--------------------------------|----|----|---7:
|-6-p-5---6-p-5---6-p-5---0---3--|----|----|---0:

Now, in 19 sec., you must tune your bass 1/2 step down (Eb, Ab, Db, Gb)

Final Solo (I love it):
|--------------------------------|--------------------------------|
|--------------------------------|-----------------5--------------|
|-----------------7--------------|-7---5---------------7---5-h-7--|
|-0-------------0----------------|---------7----------------------|

|--------------------------------|--------------------------------|
|--------------------------------|-----5--------------------------|
|-----------------7-----------7--|-7-------7-------5--------------|
|-0-------0----------------------|---------------------7---5------|

|--------------------------------|--------------------------------|
|--------------------------------|-------------------------5------|
|-----------------7--------------|--------------------------------|
|-0-------0----------------------|-0-------0---0---5-h-7----------|

|--------------------------------|--------------------------------|
|--------------------------------|--------------------------------|
|--------------------------------|-----------------7---5----------|
|-0---------------0--------------|-0-----------0-----------7---3--|

|--------------------------------|--------------------------------|
|--------------------------------|---------------------5----------|
|-----------------7--------------|--------(7)\-5------------------|
|-0-------0----------------------|-------------------------3------|

|--------------------------------|--------------------------------|
|--------------------------------|--------------------------------|
|---------------7-7-----------7--|10---7-b10-----------7---5------|
|-0------------------------------|--------------------------------|

|--------------------------------|--------------------------------|
|-------------------------5------|--------------------------------|
|--------------------------------|----------------7-\-5-----------|
|-0---------------5-h-7----------|------------------------b3------|

|--------------------------------|--------------------------------|
|--------------------------------|--------------------------------|
|-------------------------5------|---------7-------7---5---7------|
|-0-------0-------5-h-7----------|--------------------------------|

|--------------------------------|--------------------------------|
|-------------------------5------|---------5----------------------|
|--------------------------------|-----------------7---5----------|
|-0-------0-------5-h-7----------|-------------------------3------|

|--------------------------------|--------------------------------|
|--------------------------------|--------------------------------|
|-------------------------5------|--------b7-------7---5----------|
|-0-------0-------5-h-7----------|-------------------------7---5--|

|--------------------------------|--------------------------------|
|-------------------------5------|-------5/7------11-\-7---5------|
|-----------------5-h-7----------|--------------------------------|
|-0------------------------------|--------------------------------|

|--------------------------------|--------------------------------|
|--------------------------------|--------------------------------|
|-----------------5-h-7---5------|---------5----------------------|
|-0-------0----------------------|-------------0---5---7---5---3--|

|--------------------------------|--------------------------------|
|-------------------------5------|---------5-------7---5----------|
|-----------------5-h-7----------|-------------------------7------|
|-0-------0---0------------------|--------------------------------|

|--------------------------------|--------------------------------:
|--------------------------------|--------------------------------:
|-----------------5-----5h7------|-------5h7---5------------------:
|-0-----------0------------------|-----------------7---6---5---3--: End

-----------------------------------------------------------------------
Comments