Metallica - The God That Failed Chords & Tabs

 

The God That Failed Chords & Tabs

Metallica Chords & Tabs

Version: 5 Type: Tab 0 ratings
1 star 2 stars 3 stars 4 stars 5 stars
comments

The God That Failed Tab

   
Hey, this is my first tab, the only problem its for 7 guitars,bass and electric.
I Think its quite good but if you nedd to correct it e-mail me at 
rhcp@vodafone.ie

Thanx
 
 Gtr I
  S S  E +S  S  E  S S  E +E   E
|--------------------------------|
|--------------------------------|
|------------------2-2-----------|
|-3-0--0-(0)----0-------0-(0)--0-|
|
| Gtr II
| E    E  E     E  E    E  E   E
|-2------------------------------|
|-5---13-------13------13-----13-|
|--------12---------------12-----|
|--------13-------13------13-----|
|--------------------------------|
|-----------------13-------------|


   S S  E  E  E  S S  E  E  E    S S  E +E   E  S S  E +E   E
|-----------------------------|--------------------------------|
|-----------------------------|--------------------------------|
|----------2-------------0----|-----------------5-5--7-(7)-----|
|--3-3--0-----0--3-3--0-----0-|--3-3--0-(0)--0--------------0--|
|
|  E    E  E  E  E    E  E  E    E    E  E   E  E    E  E   E
|-----------------------------|--------------------------------|
|------13----13------13----13-|------13-----13------13-----13--|
|---------12------------12----|---------12-------------12------|
|-13------13----13------13----|-13------13-----13------13------|
|-----------------------------|--------------------------------|
|-13------------13------------|-13-------------13--------------|


   S S  E  E  E  S S  E  E  E
|-----------------------------|
|-----------------------------|
|----------2-------------0----|
|--3-3--0-----0--3-3--0-----0-|
|
|  E    E  E  E  E    E  E  E
|-----------------------------|
|------13----13------13----13-|
|---------12------------12----|
|-13------13----13------13----|
|-----------------------------|
|-13------------13------------|
|
| Gtr III
|  W
|-----------------------------|
|-----------------------------|
|-----------------------------|
|-----------------------------|
|-----------------------------|
|-----------------------------|


   S  S  E    +S  S  E     S   S  E   +E     E
|-------------------------------------------------|
|-------------------------------------------------|
|--------------------------2---2------------------|
|--3--0--0----(0)----0------------0---(0)----0----|
|
|  S  S  S S   S  S  S S   S   S  S S  S  S  S S
|----22-----------------------22------------------|
|-------------15----15----------------15----13----|
|-------------------18----------------------------|
|-13----------------------13----------------------|
|-------------------------------------------------|
|-13----21----15----------13-----21---15----------|
|
|  S  S  E    +Q          +H
|-------------------------------------------------|
|--8--8-------------------------------------------|
|--0--0--9----(9)---------(9)---------------------|
|-------------------------------------------------|
|-------------------------------------------------|
|-------12---(12)--------(12)---------------------|


   S  S  E     E     E     S  S  E     E    E
|-----------------------------------------------|
|-----------------------------------------------|
|--------------2-----------------------0--------|
|--3--3--0-----------0-----3--3--0----------0---|
|
|  S  S  S S   S  S  S S   S  S  S  S  S S  S S
|----22-------------------------------10--------|
|-15----------15----15--------------------------|
|-------------------18----------------12--------|
|-13----------------------13----13---------13---|
|-----------------------------------------------|
|-13----21----15----------13----13-13-----------|
|
|  S  S  E    +Q          +H
|-----------------------------------------------|
|--8--8-----------------------------------------|
|--0--0--9----(9)---------(9)-------------------|
|-----------------------------------------------|
|-----------------------------------------------|
|-------12---(12)--------(12)-------------------|


    S   S  E   +E     E    S  S  E   +E     E
|-----------------------------------------------|
|-----------------------------------------------|
|--------------------------5--5--7---(7)--------|
|---3---3--0---(0)----0---------------------0---|
|
|   S   S  S S  S  S  S S  S  S  S S  S  S  S S
|------22--------------------22-----------------|
|--------------15----13--------------15----13---|
|-----------------------------------------------|
|--13---------------------13--------------------|
|-----------------------------------------------|
|--13-----21---15---------13----21---15---------|
|
|  +H                      S  S  E   +Q
|--------------------------7--7-----------------|
|--------------------------0--0-----------------|
|--(9)---------------------------9---(9)--------|
|-----------------------------------------------|
|--------------------------------7---(7)--------|
|-(12)------------------------------------------|


   S  S  E     E    E     S S  E    E    E
|--------------------------------------------|
|--------------------------------------------|
|--------------2--------------------0--------|
|--3--3--0----------0-----3-3--0---------0---|
|
|  S  S  S  S  S S  S  S  S S  S S  S S  S S
|-----0--------------------------------------|
|-------13----13---13------------------------|
|-------------12------12-12---12---12---12---|
|-13----13-----------------------------------|
|--------------------------------------------|
|-13----13-13--------------------------------|
|
| +H.                               S S  S S
|--------------------------------------------|
|--------------------------------------------|
|-(9)--------------------------------------2-|
|-------------------------------------1--4-6-|
|-(7)-------------------------------3-5--8---|
|-----------------------------------7--------|


   S  S  E   +S  S  E    S S  E   +E     E
|--------------------------------------------|
|--------------------------------------------|
|------------------------2-2-----------------|
|--3--0--0---(0)----0---------0---(0)----0---|
|
|  S  S  S S  S  S  S S  S S  S S  S  S  S S
|--------------------------------------------|
|-------17---------15--------13--------------|
|-12-12---------------------------12---------|
|-------14---16---------13---13---16----13---|
|-------17-----------------------------------|
|------------15---------13-------------------|
|
|  S  S  E    Q          S S  E    Q
|--------------------------------------------|
|--------------------------------------------|
|--3-----------------------------------------|
|--5--5------------------9-9-----------------|
|--------7--------------------7--------------|
|-------------0--------------------0---------|


   S S  E    E    E    S S  E    E    E
|-----------------------------------------|
|-----------------------------------------|
|------------2-------------------0--------|
|--3-3--0---------0----3-3--0---------0---|
|
|  S S  S S  S S  S S  S S  S S  S S  S S
|-----------------------------------------|
|------13-------------13---13-------------|
|-----------12------------------12--------|
|-13---13---16---13---13---13---16---13---|
|-----------------------------------------|
|-13------------------13------------------|
|
|  S S  E    E    E    S S  E    E    E
|-----------------------------------------|
|-----------------------------------------|
|-----------------------------------------|
|--5-5-------9---------5-5-------7--------|
|-------7---------7---------7---------7---|
|-----------------------------------------|


   S S  E    +E     E    S S  E    +E     E
|---------------------------------------------|
|---------------------------------------------|
|------------------------5-5--7----(7)--------|
|--3-3--0----(0)----0---------------------0---|
|
|  S S  S  S  S  S  S S  S S  S  S  S  S  S S
|---------------------------------------------|
|-13--------------------13--------------------|
|------10-10-12--------------------12---------|
|-13---13----16----13---13---13----16----13---|
|-16------------------------------------------|
|-13---13---------------13---13-13------------|
|
|  S S  E     Q          S S  E     Q
|---------------------------------------------|
|---------------------------------------------|
|---------------------------------------------|
|--5-5----------------------------------------|
|-------7----------------5-5--7---------------|
|-------------0---------------------0---------|


   S S  E     E    E    S  S  E    E   S S
|------------------------------------------|
|------------------------------------------|
|-------------2------------------------0---|
|--3-3--0----------0----0----------------3-|
|
|  S S  S  S  S S  S S  S  S  E    E   S S
|-----------------------8------------------|
|-----------------------7--------------7-5-|
|------------12---10---10------------------|
|-13---13----16----------------------------|
|------------------------------------------|
|-13---13-13-------------------------------|
|
|  S S  E     E    E    S  S  S  S S S S S
|------------------------------------------|
|------------------------------------------|
|------------------------------------------|
|--5-5--------9----------------------------|
|-------7----------7----9-10--9------------|
|----------------------------12-10-9-7-5-3-|


  S S S S  Q      S S  S S  Q       S S  S S  E  E  S S  S S  Q
|--------------------------------|----------------------------------|
|--------------------------------|----------------------------------|
|--------------------------------|----------------------------------|
|-2-0-0----0------1-0--0----0----|--1-0--0----3--0--1-0--0----0-----|
|
| S S S S  S S E  E    E    E  E    E    E    E  E  E    E    E  E
|--------------------------------|----------------------------------|
|---------24---------------------|----------------------------------|
|---------23---------------12----|-----------12--------------12-----|
|-8-8-8---24-----13---13---13-13-|-13---13---13-13-13---13---13-13--|
|--------------------------------|----------------------------------|
|----------------13--------------|-13--------------13---------------|
|
| S S S S  Q      S S  S S  Q       S S  E    E  E  S S  S S  Q
|--------------------------------|----------------------------------|
|--------------------------------|----------------------------------|
|--------------------------------|----------------------------------|
|--------------------------------|----------------------------------|
|---2-2----2------3-2--2----2----|--3-2--2----5--2--3-2--2----2-----|
|-2-0-0----0------1-0--0----0----|--1-0--0----3--0--1-0--0----0-----|


   S S  S S  Q     S S  S S  Q       S S  S S  E    E     S S S S Q
|---------------------------------|-----------------------------------------|
|---------------------------------|-----------------------------------------|
|---------------------------------|-----------------------------------------|
|--1-0--0----0-----1-0--0----0----|--1-0--0----3----0-----1-0-0---0---------|
|
|  E    E    E  E  E    E    E  E    S S  S S  S S  S  S  S S S S S  S  S S
|---------------------------------|---------------------------3-------------|
|-24--------15-15-----------------|---------------------------------16-16---|
|-23------------------------12----|-10--------12------12-12------------19---|
|-24--------------13---13---13-13-|-13---13---13---13-------------5-15------|
|---------------------------------|-----------------------------------------|
|------23---15----13--------------|-13------------------------------15------|
|
| Gtrs III, IV
|  S S  S S  Q     S S  S S  Q       S S  E    E    E     S S S S Q
|---------------------------------|-----------------------------------------|
|---------------------------------|-----------------------------------------|
|---------------------------------|-----------------------------------------|
|---------------------------------|-----------------------------------------|
|--3-2--2----2-----3-2--2----2----|--3-2--2----5----2-----3-2-2---2---------|
|--1-0--0----0-----1-0--0----0----|--1-0--0----3----0-----1-0-0---0---------|


   S S  S S  Q     S S  S S  Q
|-----------------------------------|
|-----------------------------------|
|-----------------------------------|
|--1-0--0----0-----1-0--0----0------|
|
|  S S  E    E  E  E    E    E  E
|-----------------------------------|
|-----------------------------------|
|-----------12--------------12------|
|-16---13---13-13-13---13---13-13---|
|-----------------------------------|
|-13--------------13----------------|
|
|  S S  S S  Q     S S  S S  Q
|-----------------------------------|
|-----------------------------------|
|-----------------------------------|
|-----------------------------------|
|--3-2--2----2-----3-2--2----2------|
|--1-0--0----0-----1-0--0----0------|


   S S  S S  E  E  S S  S S  Q       S S  S S  Q     S S  S S  Q
|---------------------------------|---------------------------------|
|---------------------------------|---------------------------------|
|---------------------------------|---------------------------------|
|--1-0--0----3--0--1-0--0----0----|--1-0--0----0-----1-0--0----0----|
|
|  E    E    E  E  E    E    E  E    S S  E    E  E  E    E    E  E
|---------------------------------|---------------------------------|
|---------------------------------|---------------------------------|
|-----------12--------------12----|-----------12--------------12----|
|-13---13---13-13-13---13---13-13-|-16---13---13-13-13---13---13-13-|
|---------------------------------|---------------------------------|
|-13--------------13-----------13-|-13--------------13--------------|
|
|  S S  E    E  E  S S  S S  Q       S S  S S  Q     S S  S S  Q
|---------------------------------|---------------------------------|
|---------------------------------|---------------------------------|
|---------------------------------|---------------------------------|
|---------------------------------|---------------------------------|
|--3-2--2----5--2--3-2--2----2----|--3-2--2----2-----3-2--2----2----|
|--1-0--0----3--0--1-0--0----0----|--1-0--0----0-----1-0--0----0----|


   S S  S S  E  E  S S  S S  Q
|----------------------------------|
|----------------------------------|
|----------------------------------|
|--1-0--0----3--0--0-1--1----1-----|
|
|  E    E    E  E  E    E    E  E
|----------------------------------|
|----------------------------------|
|-----------12--------------12-----|
|-13---13---13-13-13---13---13-13--|
|----------------------------------|
|-13--------------13-----------13--|
|
|  S S  E    E  E  S S  S S  Q
|----------------------------------|
|----------------------------------|
|----------------------------------|
|----------------------------------|
|--3-2--2----5--2--2-3--3----3-----|
|--1-0--0----3--0--0-1--1----1-----|


   S S  S S  Q       S S  S S  Q
|-------------------------------------|
|-------------------------------------|
|-------------------------------------|
|--1-0--1----1-------1-0--1----1------|
|
|  S S  E    E  S S  S S  E    E  S S
|-------------------------------------|
|-------------------------------------|
|-----------12----------------12------|
|-16---13---13-13---16---13---13-13---|
|-------------------------------------|
|-13-----------13---13-----------13---|
|
|  S S  S S  Q       S S  S S  Q
|-------------------------------------|
|-------------------------------------|
|-------------------------------------|
|-------------------------------------|
|--3----3----3-------3----3----3------|
|--1-0--1----1-------1-0--1----1------|


  S S  S S  S S  E  S S  S S  Q       S S  S S  Q     S S  S S  Q
|----------------------------------|---------------------------------|
|----------------------------------|---------------------------------|
|----------------------------------|---------------------------------|
|-1-0--1----3-0--3--0-1--1----1----|--1-0--1----1-----1-0--1----1----|
|
| S S  E    E    E  E    E    E  E    S S  E    E  E  S S  E    E  E
|-8--------------------------------|---------------------------------|
|-5---15---15---15-----------------|---------------------------------|
|----------------------------12----|-----------12--------------12----|
|------------------13---13---13-13-|-16---13---13-13-16---13---13-13-|
|----------------------------------|---------------------------------|
|----------15------13-----------13-|-13-----------13-13--------------|
|
| S S  E    S S  E  S S  S S  Q       S S  S S  Q     S S  S S  Q
|----------------------------------|---------------------------------|
|----------------------------------|---------------------------------|
|----------------------------------|---------------------------------|
|----------------------------------|---------------------------------|
|-3----3----5----5----3--3----3----|--3----3----3-----3----3----3----|
|-1-0--1----3-0--3--0-1--1----1----|--1-0--1----1-----1-0--1----1----|


   S S  S  S  S S  E    S  S  S S  Q
|---------------------------------------------|
|---------------------------------------------|
|---------------------------------------------|
|--1-0--1-----3-0--3----3--0--0----0----------|
|
|  S S  S  S  S S  S S  S  S  S S  S  S  S  S
|------------10-------------------------------|
|----5-15--------------------14---------14-14-|
|-23---------12--------12-12------12-12----17-|
|-24--------------13---------14---------14----|
|---------------------------------------------|
|---------13----------------------------------|
|
|  S S  E     S S  E    S  S  E    E     E
|---------------------------------------------|
|---------------------------------------------|
|---------------------------------------------|
|---------------------------------------------|
|--3----3-----5----5----5----------2-----2----|
|--1-0--1-----3-0--3----3--0--0----0----------|


   S  S  E   +S  S  E    S S  E   +E     E
|--------------------------------------------|
|--------------------------------------------|
|------------------------2-2-----------------|
|--3--0--0---(0)----0---------0---(0)----0---|
|
|  S  S  S S  S  S  S S  S S  S S  S  S  S S
|--------------------------------------------|
|-------14---------15--------13--------------|
|-12-12-15------------------------12---------|
|-------15---16---------13---13---16----13---|
|--------------------------------------------|
|------------15---------13-------------------|
|
|  S  S  E    Q          S S  E    Q
|--------------------------------------------|
|--------------------------------------------|
|--0--0------------------4-4-----------------|
|--------2--------------------2--------------|
|--------------------------------------------|
|-------------0--------------------0---------|


   S S  E    E    E    S S  E     E    E
|------------------------------------------|
|------------------------------------------|
|------------2--------------------0--------|
|--3-3--0---------0----3-3--0----------0---|
|
|  S S  S S  S S  S S  S S  S  S  S S  S S
|------------------------------------------|
|------13-------------13---13--------------|
|-----------12-------------------12--------|
|-13---13---16---13---13---13----16---13---|
|------------------------------------------|
|-13------------------13---13-13-----------|
|
| Gtr III
|  S S  E    E    E    S S  E     E    S S
|------------------------------------------|
|------------------------------------------|
|--0-0-------4---------0-0--------2------0-|
|-------2---------2---------2------------4-|
|--------------------------------------4---|
|--------------------------------------8---|


   S  S S  S S  S S  S S  S S  S S  S S  S
|------------------------------------------|
|------------------------------------------|
|------------2-------------------2---------|
|--3--0----0----0----0-3--0----0----0----0-|
|
|  S  S S  S S  S S  S S  S S  S S  S S  S
|----22-0-22---22-0-22-0-22-0-22-0-22-0-22-|
|------------7-----------------------------|
|-12---------------------------------------|
|-16---------------------------------------|
|------------------------------------------|
|------------------------------------------|
|
|  S  S S  S S  S S  S S  S S  S S  S S  S
|------------------------------------------|
|------------------------------------------|
|--2---------4---------0---------4---------|
|--5--2----2----2----2----2----2----2------|
|------------------------------------------|
|----------------------------------------0-|


 2/4
   Q        Q
|---------------------|
|---------------------|
|---------------------|
|--0--------3---------|
|
|  E  S  S  S  S  S S
|---------------------|
|-24-10-10------------|
|-23-------------10-9-|
|-24-------14---------|
|----------15---------|
|----------13-12------|
|
| Gtrs III, IV
|  Q        Q
|---------------------|
|---------------------|
|---------------------|
|--2------------------|
|--2--------5---------|
|--0--------3---------|


 4/4                                         2/4
   S  S S  S S  S S  S S  S S  S S  S  S  S    Q        Q
|-------------------------------------------|---------------------|
|-------------------------------------------|---------------------|
|--5---------9---------5---------9----------|---------------------|
|-----7----7----7----7----7----7----7-----7-|--7--------5---------|
|
|  S  S S  S S  S S  S S  S S  S S  S  S  S    E  S  S  S  S  S S
|----22-0-22---22-0-22-0-22-0-22-0-22--0-22-|---------------------|
|------------7------------------------------|-24-10-10------------|
|-12----------------------------------------|-23-------------10-9-|
|-16----------------------------------------|-24-------14---------|
|-------------------------------------------|----------15---------|
|-------------------------------------------|----------13-12------|
|
|  S  S S  S S  S S  S S  S S  S S  E.         Q        Q
|-------------------------------------------|---------------------|
|-------------------------------------------|---------------------|
|-------------------------------------------|---------------------|
|-------------------------------------------|---------------------|
|--5---------9---------5---------9----------|--9--------7---------|
|-----7----7----7----7----7----7----7-------|--7--------5---------|


 4/4                                        2/4
   S  S S  S S  S S  S S  S S  S S  S S  S    Q        Q
|------------------------------------------|---------------------|
|------------------------------------------|---------------------|
|------------2-------------------2---------|---------------------|
|--3--0----0----0----0-3--0----0----0----0-|--0--------3---------|
|
|  S  S S  S S  S S  S S  S S  S S  S S  S    E  S  S  S  S  S S
|----22-0-22---22-0-22-0-22-0-22-0-22-0-22-|---------------------|
|------------7-----------------------------|-24-10-10------------|
|-12---------------------------------------|-23-------------10-9-|
|-16---------------------------------------|-24-------14---------|
|------------------------------------------|----------15---------|
|------------------------------------------|----------13-12------|
|
|  S  S S  S S  S S  S S  S S  S S  S S  S    Q        Q
|------------------------------------------|---------------------|
|------------------------------------------|---------------------|
|------------------------------------------|---------------------|
|--5---------9---------5---------9---------|--2------------------|
|-----7----7----7----7----7----7----7------|--2--------5---------|
|----------------------------------------0-|--0--------3---------|


 4/4
   S  S S  S S  S S  S S  S S  S S  S  S  S
|-------------------------------------------|
|-------------------------------------------|
|--5---------9---------5---------9----------|
|-----7----7----7----7----7----7----7-----7-|
|
|  S  S S  S S  S S  S S  S S  S S  S  S  S
|----22-0-22---22-0-22-0-22-0-22-0-22--0-22-|
|------------7------------------------------|
|-12----------------------------------------|
|-16----------------------------------------|
|-------------------------------------------|
|-------------------------------------------|
|
|  S  S S  S S  S S  S S  S S  S S  E.
|-------------------------------------------|
|-------------------------------------------|
|-------------------------------------------|
|-------------------------------------------|
|--5---------9---------5---------9----------|
|-----7----7----7----7----7----7----7-------|


   S  S S  S S  S S  S S  S S  S S  S  S  S
|--------------------------------------------|
|--------------------------------------------|
|--6---------9---------6---------9-----------|
|-----7----7----7----7----7----7----7-----7--|
|
|  S  S S  S S  S S  S S  S S  S S  S  S  S
|----22-0-22---22-0-22-0-22-0-22-0-22--0-22--|
|------------7-------------------------------|
|--------------------------------------------|
|-16-----------------------------------------|
|--------------------------------------------|
|-15-----------------------------------------|
|
|  S  S S  S S  S S  S S  S S  S S  E.
|--------------------------------------------|
|--------------------------------------------|
|--------------------------------------------|
|--------------------------------------------|
|--6---------9---------6---------9-----------|
|-----7----7----7----7----7----7----7--------|


  W
|--------------------------------------------|
|--------------------------------------------|
|--------------------------------------------|
|-3------------------------------------------|
|
| S  S  S S  S S  S S  S  S  S S  S  S  S  S
|-8------------------------------------------|
|-5----15---15---15--------------------17-14-|
|------------------------12-12---12-12-17-17-|
|--------------------------------------14-14-|
|--------------------------------------------|
|-----------15--------13-15-15---------------|
|
| H.                              Q
|--------------------------------------------|
|--------------------------------------------|
|--------------------------------------------|
|--------------------------------------------|
|-5------------------------------------------|
|-3------------------------------------------|


   S  S  E   +S  S  E    S S  E   +E     E
|--------------------------------------------|
|--------------------------------------------|
|------------------------2-2-----------------|
|--3--0--0---(0)----0---------0---(0)----0---|
|
|  S  S  S S  S  S  S S  S S  S S  S  S  S S
|--------------------------------------------|
|----14-16---------15--------13--------------|
|-15-15---------------------------12---------|
|-------15---16---------13---13---16----13---|
|-15-15-17-----------------------------------|
|------------15---------13-------------------|
|
|  S  S  E    Q          S S  E    Q
|--------------------------------------------|
|--------------------------------------------|
|--------------------------------------------|
|--5--5------------------9-9-----------------|
|--------7--------------------7--------------|
|-------------0--------------------0---------|


   S S  E    E    E    S S  E    E    E
|-----------------------------------------|
|-----------------------------------------|
|------------2-------------------0--------|
|--3-3--0---------0----3-3--0---------0---|
|
|  S S  S S  S S  S S  S S  S S  S S  S S
|-----------------------------------------|
|------13-------------13---13-------------|
|-----------12------------------12--------|
|-13---13---16---13---13---13---16---13---|
|-----------------------------------------|
|-13------------------13------------------|
|
|  S S  E    E    E    S S  E    E    E
|-----------------------------------------|
|-----------------------------------------|
|-----------------------------------------|
|--5-5-------9---------5-5-------7--------|
|-------7---------7---------7---------7---|
|-----------------------------------------|


   S S  E    +E     E    S S  E    +E     E
|---------------------------------------------|
|---------------------------------------------|
|------------------------5-5--7----(7)--------|
|--3-3--0----(0)----0---------------------0---|
|
|  S S  S  S  S  S  S S  S S  S  S  S  S  S S
|---------------------------------------------|
|-13--------------------13--------------------|
|------10-10-12--------------------12---------|
|-13---13----16----13---13---13----16----13---|
|-16------------------------------------------|
|-13---13---------------13---13-13------------|
|
|  S S  E     Q          S S  E     Q
|---------------------------------------------|
|---------------------------------------------|
|---------------------------------------------|
|--5-5----------------------------------------|
|-------7----------------5-5--7---------------|
|-------------0---------------------0---------|


   S S  E     E    E    S  S  E    E   S S
|------------------------------------------|
|------------------------------------------|
|-------------2------------------------0---|
|--3-3--0----------0----0----------------3-|
|
|  S S  S  S  S S  S S  S  S  E    E   S S
|-----------------------8------------------|
|-----------------------7--------------7-5-|
|------------12---10---10------------------|
|-13---13----16----------------------------|
|------------------------------------------|
|-13---13-13-------------------------------|
|
|  S S  E     E    E    S  S  S  S S S S S
|------------------------------------------|
|------------------------------------------|
|------------------------------------------|
|--5-5--------9----------------------------|
|-------7----------7----9-10--9------------|
|----------------------------12-10-9-7-5-3-|


  S S  S S  Q     S S  S S  Q       S S  S S  E  E  S S  S S  Q
|--------------------------------|-----------------------------------|
|--------------------------------|-----------------------------------|
|--------------------------------|-----------------------------------|
|-2-0--0----0-----1-0--0----0----|--1-0--0----3--0--1-0--0----0------|
|
| S S  E    E  E  E    E    E  E    E    E    E  E  E    E    E  E
|-2------------------------------|-----------------------------------|
|-5---15---15-15-----------------|-----------------------------------|
|--------------------------12----|-----------12--------------12------|
|----------------13---13---13-13-|-13---13---13-13-13---13---13-13---|
|--------------------------------|-----------------------------------|
|----------15----13--------------|-13--------------13-----------13---|
|
| S S  S S  Q     S S  S S  Q       S S  E    E  E  S S  S S  Q
|--------------------------------|-----------------------------------|
|--------------------------------|-----------------------------------|
|--------------------------------|-----------------------------------|
|--------------------------------|-----------------------------------|
|---2--2----2-----3-2--2----2----|--3-2--2----5--2--3-2--2----2------|
|-2-0--0----0-----1-0--0----0----|--1-0--0----3--0--1-0--0----0------|


   S S  S S  Q     S S  S S  Q       S S  S S  E  E  S S  S S  Q
|---------------------------------|---------------------------------|
|---------------------------------|---------------------------------|
|---------------------------------|---------------------------------|
|--1-0--0----0-----1-0--0----0----|--1-0--0----3--0--0-1--1----1----|
|
|  S S  E    E  E  E    E    E  E    E    E    E  E  E    E    E  E
|---------------------------------|---------------------------------|
|---------------------------------|---------------------------------|
|-----------12--------------12----|-----------12--------------12----|
|-16---13---13-13-13---13---13-13-|-13---13---13-13-13---13---13-13-|
|---------------------------------|---------------------------------|
|-13--------------13--------------|-13--------------13-----------13-|
|
|  S S  S S  Q     S S  S S  Q       S S  E    E  E  S S  S S  Q
|---------------------------------|---------------------------------|
|---------------------------------|---------------------------------|
|---------------------------------|---------------------------------|
|---------------------------------|---------------------------------|
|--3-2--2----2-----3-2--2----2----|--3-2--2----5--2--2-3--3----3----|
|--1-0--0----0-----1-0--0----0----|--1-0--0----3--0--0-1--1----1----|


   S S  S S  Q       S S  S S  Q
|--------------------------------------|
|--------------------------------------|
|--------------------------------------|
|--1-0--1----1-------1-0--1----1-------|
|
|  S S  E    E  S S  S S  E    E  S S
|--------------------------------------|
|--------------------------------------|
|-----------12----------------12-------|
|-16---13---13-13---16---13---13-13----|
|--------------------------------------|
|-13-----------13---13-----------13----|
|
|  S S  S S  Q       S S  S S  Q
|--------------------------------------|
|--------------------------------------|
|--------------------------------------|
|--------------------------------------|
|--3----3----3-------3----3----3-------|
|--1-0--1----1-------1-0--1----1-------|


  S S  S S  S S  E  S S  S S  Q       S S  S S  Q     S S  S S  Q
|----------------------------------|---------------------------------|
|----------------------------------|---------------------------------|
|----------------------------------|---------------------------------|
|-1-0--1----3-0--3--0-1--1----1----|--1-0--1----1-----1-0--1----1----|
|
| S S  E    E    E  E    E    E  E    S S  E    E  E  S S  E    E  E
|-8--------------------------------|---------------------------------|
|-5---15---15---15-----------------|---------------------------------|
|----------------------------12----|-----------12--------------12----|
|------------------13---13---13-13-|-16---13---13-13-16---13---13-13-|
|----------------------------------|---------------------------------|
|----------15------13-----------13-|-13-----------13-13--------------|
|
| S S  E    S S  E  S S  S S  Q       S S  S S  Q     S S  S S  Q
|----------------------------------|---------------------------------|
|----------------------------------|---------------------------------|
|----------------------------------|---------------------------------|
|----------------------------------|---------------------------------|
|-3----3----5----5----3--3----3----|--3----3----3-----3----3----3----|
|-1-0--1----3-0--3--0-1--1----1----|--1-0--1----1-----1-0--1----1----|


   S S  S  S  S S  E     S  S  S  S  Q
|-----------------------------------------------|
|-----------------------------------------------|
|-----------------------------------------------|
|--1-0--1-----3-0--3-----3--0--0-----0----------|
|
|  S S  S  S  S S  S  S  S  S  S  S  S  S  S  S
|------------10---------------------------------|
|----5-15---------------14----14----14----14-14-|
|-23---------12------12----12----12----12----17-|
|-24--------------13----14----14----14----14----|
|-----------------------------------------------|
|---------13------------------------------------|
|
|  S S  E     S S  E     S  S  E     E     E
|-----------------------------------------------|
|-----------------------------------------------|
|-----------------------------------------------|
|-----------------------------------------------|
|--3----3-----5----5-----5-----------2-----2----|
|--1-0--1-----3-0--3-----3--0--0-----0----------|


   S S  E    +S  S  E    S S  E   +E     E
|--------------------------------------------|
|--------------------------------------------|
|------------------------2-2-----------------|
|--3-0--0----(0)----0---------0---(0)----0---|
|
|  S S  S  S  S  S  S S  S S  S S  S  S  S S
|--------------------------------------------|
|----------------------------13--------------|
|------------12-------------------12---------|
|------------16----13---13---13---16----13---|
|--------------------------------------------|
|-13---13-13------------13-------------------|
|
|  S S  E     Q          S S  E    Q
|--------------------------------------------|
|--------------------------------------------|
|--0-0-------------------4-4-----------------|
|-------2---------------------2--------------|
|--------------------------------------------|
|-------------0--------------------0---------|


   S S  E    E    E    S S  E     E    E
|------------------------------------------|
|------------------------------------------|
|------------2--------------------0--------|
|--3-3--0---------0----3-3--0----------0---|
|
|  S S  S S  S S  S S  S S  S  S  S S  S S
|------------------------------------------|
|------13-------------13---13--------------|
|-----------12-------------------12--------|
|-13---13---16---13---13---13----16---13---|
|------------------------------------------|
|-13------------------13---13-13-----------|
|
| Gtr III
|  S S  E    E    E    S S  E     E    S S
|------------------------------------------|
|------------------------------------------|
|--0-0-------4---------0-0--------2------0-|
|-------2---------2---------2------------4-|
|--------------------------------------4---|
|--------------------------------------8---|


   S  S S  S S  S S  S S  S S  S S  S S  S
|------------------------------------------|
|------------------------------------------|
|------------2-------------------2---------|
|--3--0----0----0----0-3--0----0----0----0-|
|
|  S  S S  S S  S S  S S  S S  S S  S S  S
|----22-0-22---22-0-22-0-22-0-22-0-22-0-22-|
|------------7-----------------------------|
|-12---------------------------------------|
|-16---------------------------------------|
|------------------------------------------|
|------------------------------------------|
|
|  S  S S  S S  S S  S S  S S  S S  S S  S
|------------------------------------------|
|------------------------------------------|
|--2---------4---------0---------4---------|
|--5--2----2----2----2----2----2----2------|
|------------------------------------------|
|----------------------------------------0-|


 2/4
   Q        Q
|---------------------|
|---------------------|
|---------------------|
|--0--------3---------|
|
|  E  S  S  S  S  S S
|---------------------|
|-24-10-10------------|
|-23-------------10-9-|
|-24-------14---------|
|----------15---------|
|----------13-12------|
|
| Gtrs III, IV
|  Q        Q
|---------------------|
|---------------------|
|---------------------|
|--2------------------|
|--2--------5---------|
|--0--------3---------|


 4/4                                         2/4
   S  S S  S S  S S  S S  S S  S S  S  S  S    Q        Q
|-------------------------------------------|---------------------|
|-------------------------------------------|---------------------|
|--5---------9---------5---------9----------|---------------------|
|-----7----7----7----7----7----7----7-----7-|--7--------5---------|
|
|  S  S S  S S  S S  S S  S S  S S  S  S  S    E  S  S  S  S  S S
|----22-0-22---22-0-22-0-22-0-22-0-22--0-22-|---------------------|
|------------7------------------------------|-24-10-10------------|
|-12----------------------------------------|-23-------------10-9-|
|-16----------------------------------------|-24-------14---------|
|-------------------------------------------|----------15---------|
|-------------------------------------------|----------13-12------|
|
|  S  S S  S S  S S  S S  S S  S S  E.         Q        Q
|-------------------------------------------|---------------------|
|-------------------------------------------|---------------------|
|-------------------------------------------|---------------------|
|-------------------------------------------|---------------------|
|--5---------9---------5---------9----------|--9--------7---------|
|-----7----7----7----7----7----7----7-------|--7--------5---------|


 4/4                                        2/4
   S  S S  S S  S S  S S  S S  S S  S S  S    Q        Q
|------------------------------------------|---------------------|
|------------------------------------------|---------------------|
|------------2-------------------2---------|---------------------|
|--3--0----0----0----0-3--0----0----0----0-|--0--------3---------|
|
|  S  S S  S S  S S  S S  S S  S S  S S  S    E  S  S  S  S  S S
|----22-0-22---22-0-22-0-22-0-22-0-22-0-22-|---------------------|
|------------7-----------------------------|-24-10-10------------|
|-12---------------------------------------|-23-------------10-9-|
|-16---------------------------------------|-24-------14---------|
|------------------------------------------|----------15---------|
|------------------------------------------|----------13-12------|
|
|  S  S S  S S  S S  S S  S S  S S  S S  S    Q        Q
|------------------------------------------|---------------------|
|------------------------------------------|---------------------|
|------------------------------------------|---------------------|
|--5---------9---------5---------9---------|--2------------------|
|-----7----7----7----7----7----7----7------|--2--------5---------|
|----------------------------------------0-|--0--------3---------|


 4/4
   S  S S  S S  S S  S S  S S  S S  S  S  S
|-------------------------------------------|
|-------------------------------------------|
|--5---------9---------5---------9----------|
|-----7----7----7----7----7----7----7-----7-|
|
|  S  S S  S S  S S  S S  S S  S S  S  S  S
|----22-0-22---22-0-22-0-22-0-22-0-22--0-22-|
|------------7------------------------------|
|-12----------------------------------------|
|-16----------------------------------------|
|-------------------------------------------|
|-------------------------------------------|
|
|  S  S S  S S  S S  S S  S S  S S  E.
|-------------------------------------------|
|-------------------------------------------|
|-------------------------------------------|
|-------------------------------------------|
|--5---------9---------5---------9----------|
|-----7----7----7----7----7----7----7-------|

[ Tab from: http://www.guitartabs.cc/tabs/m/metallica/the_god_that_failed_tab_ver_5.html ]
   S  S S  S S  S S  S S  S S  S S  S  S  S
|--------------------------------------------|
|--------------------------------------------|
|--6---------9---------6---------9-----------|
|-----7----7----7----7----7----7----7-----7--|
|
|  S  S S  S S  S S  S S  S S  S S  S  S  S
|----22-0-22---22-0-22-0-22-0-22-0-22--0-22--|
|------------7-------------------------------|
|--------------------------------------------|
|-16-----------------------------------------|
|--------------------------------------------|
|-15-----------------------------------------|
|
|  S  S S  S S  S S  S S  S S  S S  E.
|--------------------------------------------|
|--------------------------------------------|
|--------------------------------------------|
|--------------------------------------------|
|--6---------9---------6---------9-----------|
|-----7----7----7----7----7----7----7--------|


  W
|----------------------------------------------|
|----------------------------------------------|
|----------------------------------------------|
|-3--------------------------------------------|
|
| S  S  S S  S S  S  S  S  S  S  S  S  S  S  S
|-8--------------------------------------------|
|-5----15---15---15----------16-14----16----14-|
|-------------------------------17-12-------15-|
|-------------------------17-15-14----17-15-14-|
|-------------------------------17-------17-15-|
|-----------15------15-15-15----------15-------|
|
| H.                                Q
|----------------------------------------------|
|----------------------------------------------|
|----------------------------------------------|
|----------------------------------------------|
|-5--------------------------------------------|
|-3--------------------------------------------|


  W
|-------------------------------------------|
|-------------------------------------------|
|-------------------------------------------|
|-0-----------------------------------------|
|
| S S  S S  S  S  S  S  S  S  S S  S  S S S
|-8-------------------------------------8---|
|-5---15-5-15---------------------------7---|
|--------9-------------------12-------------|
|----------------13----13----13---13--------|
|--------7----------------------------------|
|----------15-13----13----13------13-13-----|
|
| W
|-------------------------------------------|
|-------------------------------------------|
|-------------------------------------------|
|-------------------------------------------|
|-2-----------------------------------------|
|-0-----------------------------------------|


  W
|---------------------------------------------|
|---------------------------------------------|
|-2-------------------------------------------|
|---------------------------------------------|
|
| S S  S  S  S  S  S S  S  S  S S  S  S  S  S
|-8-------------------------------------------|
|-5---15--------------------------------------|
|-----------12-12---------12-12---10-12-12----|
|-----------13----13--------------------------|
|------------------------------------10-10-10-|
|--------13------------13-15-15---------------|
|
| W
|---------------------------------------------|
|---------------------------------------------|
|---------------------------------------------|
|-4-------------------------------------------|
|-2-------------------------------------------|
|---------------------------------------------|


   S  S  E   +S  S  E    S S  E   +E     E
|--------------------------------------------|
|--------------------------------------------|
|------------------------2-2-----------------|
|--3--0--0---(0)----0---------0---(0)----0---|
|
|  S  S  S S  S  S  S S  S S  S S  S  S  S S
|--------------------------------------------|
|-10-10-17-----------------------------------|
|-------17---23------------------------------|
|-10-10-14---24---------13---13---24---------|
|-------17---24-------------------24---------|
|------------------23---13--------------23---|
|
|  S  S  E    Q          S S  E    Q
|--------------------------------------------|
|--------------------------------------------|
|--0--0------------------4-4-----------------|
|--------2--------------------2--------------|
|--------------------------------------------|
|-------------0--------------------0---------|


   S S  E    E    E    S S  E     E   E
|-----------------------------------------|
|-----------------------------------------|
|------------2--------------------0-------|
|--3-3--0---------0----3-3--0---------0---|
|
|  S S  S S  S S  S S  S S  S  S  S S S S
|-----------------------------------------|
|--------------------------------24-7-7-7-|
|--------------------------------23-------|
|-13---13---24--------13---13----24-------|
|-----------24-------------------24-------|
|-13-------------23---13---13-13----------|
|
|  S S  E    E    E    S S  E     E   E
|-----------------------------------------|
|-----------------------------------------|
|--0-0-------4---------0-0--------2-------|
|-------2---------2---------2---------2---|
|-----------------------------------------|
|-----------------------------------------|


  W
|--------------------------------------------|
|--------------------------------------------|
|--------------------------------------------|
|-3------------------------------------------|
|
| S S  S S  S  S  S  S  S S  S S  S  S  S  S
|-5------------------------------------------|
|-5---15-5-15----15------------5-15----15----|
|--------9---------------------9-------------|
|----------------------13---13---------------|
|--------7---------------------7-------------|
|----------15-15----15-13--------15-15----15-|
|
| W
|--------------------------------------------|
|--------------------------------------------|
|--------------------------------------------|
|--------------------------------------------|
|-5------------------------------------------|
|-3------------------------------------------|


  W
|---------------------------------------------|
|---------------------------------------------|
|-2-------------------------------------------|
|---------------------------------------------|
|
| S S  S  S  S S  S S  S  S  S  S  S  S  S  S
|-8-------------------------------------------|
|-5---15--------------------------------------|
|-----------12---12---12-12----12-12----12-12-|
|-----------13---13---------------------------|
|---------------------------------------------|
|--------13--------------13-12----13-12----13-|
|
| W
|---------------------------------------------|
|---------------------------------------------|
|---------------------------------------------|
|-4-------------------------------------------|
|-2-------------------------------------------|
|---------------------------------------------|


   S S  E    +S  S  E    S S  E   +E     E
|--------------------------------------------|
|--------------------------------------------|
|------------------------2-2-----------------|
|--3-0--0----(0)----0---------0---(0)----0---|
|
|  S S  S  S  S  S  S S  S S  S S  S  S  S S
|--------------------------------------------|
|--------------------------------------------|
|------10-10-12-------------------12---------|
|------------16----13---13---13---16----13---|
|--------------------------------------------|
|-12--------------------13-------------------|
|
|  S S  E     Q          S S  E    Q
|--------------------------------------------|
|--------------------------------------------|
|--0-0-------------------4-4-----------------|
|-------2---------------------2--------------|
|--------------------------------------------|
|-------------0--------------------0---------|


   S S  E    E    E    S  S  E     E     E
|---------------------------------------------|
|---------------------------------------------|
|------------2---------------------0----------|
|--3-3--0---------0----3--3--0-----------0----|
|
|  S S  S S  S S  S S  S  S  S  S  S  S  S  S
|---------------------------------------------|
|------------------------------19-19-17-17-14-|
|-----------12-----------12-12-22-22-19-19-17-|
|-13---13---16---13---13-------------17----14-|
|------------------------------20----19-19-15-|
|-13------------------13-15----------------18-|
|
|  S S  E    E    E    S  S  E     E     E
|---------------------------------------------|
|---------------------------------------------|
|--0-0-------4---------0--0--------2----------|
|-------2---------2----------2-----------2----|
|---------------------------------------------|
|---------------------------------------------|


   W
|--------------------------------------------|
|--------------------------------------------|
|--------------------------------------------|
|--3-----------------------------------------|
|
|  S S  S  S  S S  S S  S S  S  S  S  S  S S
|---------------------------------10---------|
|------------24-7-24-7------------------24-7-|
|----------------------10---------12---------|
|-16---13----24---24---13---13----13----24---|
|------------------------------------10------|
|-13------13-23---23-----------13-------23---|
|
|  W
|--------------------------------------------|
|--------------------------------------------|
|--------------------------------------------|
|--------------------------------------------|
|--5-----------------------------------------|
|--3-----------------------------------------|


   W
|--------------------------------------------|
|--------------------------------------------|
|--2-----------------------------------------|
|--------------------------------------------|
|
|  S S  S S  S S  S S  S  S  S S  S  S  S  S
|--------------------------------------------|
|-21------5-15---15--------------19-17----14-|
|-23---20-------------12-12-12---22-------17-|
|-----------------------------------17----14-|
|-----------------------------------19----17-|
|-----------15---15---15-15-15------15-15-18-|
|
|  W
|--------------------------------------------|
|--------------------------------------------|
|--------------------------------------------|
|--4-----------------------------------------|
|--2-----------------------------------------|
|--------------------------------------------|


   S S  E   +S  S  E    S S  E    +E     E
|--------------------------------------------|
|--------------------------------------------|
|-----------------------2-2------------------|
|--3-0--0---(0)----0---------0----(0)----0---|
|
|  S S  S S  S  S  S S  S S  S  S  S  S  S S
|--------------------------------------------|
|-17---16---18----15--------------24---------|
|-19---17-------------------------23---------|
|-17--------19---------13---13----24---------|
|-19---17------------------------------------|
|-----------15---------13---13-13-------23---|
|
|  S S  E    Q          S S  E     Q
|--------------------------------------------|
|--------------------------------------------|
|--0-0------------------4-4------------------|
|-------2--------------------2---------------|
|--------------------------------------------|
|------------0---------------------0---------|


   S S  E     E    E    S S  E    E     E
|--------------------------------------------|
|--------------------------------------------|
|-------------2-------------------0----------|
|--3-3--0----------0----3-3--0----------0----|
|
|  S S  S  S  S S  S S  S S  S S  S  S  S  S
|--------------------------------------------|
|------------24------------------------------|
|------------23---------------------12-12-12-|
|-13---13----24--------13---13---13----------|
|--------------------------------------------|
|-13---13-13------23---13---13---13-15----15-|
|
|  S S  E     E    E    S S  E    E     E
|--------------------------------------------|
|--------------------------------------------|
|--0-0--------4---------0-0-------2----------|
|-------2----------2---------2----------2----|
|--------------------------------------------|
|--------------------------------------------|


  W
|------------------------------------------|
|------------------------------------------|
|------------------------------------------|
|-3----------------------------------------|
|
| S S  S  S S S S S  S S  S  S  S  S  S  S
|-8---------5---5--------------------------|
|-5---------7---7--------------------------|
|--------10-----------------12-12-12-12-10-|
|-----13------------13---13----------------|
|------------------------------------------|
|-----13-13---------13---13-15-15-------12-|
|
| W
|------------------------------------------|
|------------------------------------------|
|------------------------------------------|
|------------------------------------------|
|-5----------------------------------------|
|-3----------------------------------------|


   W
|-------------------------------------------|
|-------------------------------------------|
|--2----------------------------------------|
|-------------------------------------------|
|
|  S S  S  S  S S  S S  S  S  S S  S S  S S
|-------------------------------------------|
|-------------------------------------------|
|-10---10-10-12---12---10-------------------|
|-13---13----16---16------------------------|
|-------------------------10-10---10---10---|
|-------------------------------------------|
|
| Gtr III
|  W
|-------------------------------------------|
|-------------------------------------------|
|-------------------------------------------|
|--4----------------------------------------|
|--2----------------------------------------|
|-------------------------------------------|


   S  S  S  S  S  S  S  S  S  S  S  S  S  S  S  S
|-------------------------------------------------|
|--4--5--4-----------------4--5--4----------------|
|--------7--5--4--2--0-----------7--5--4--2--0----|
|-----------------------3-----------------------3-|
|
|  S  S  S  S  S  S  S  S  S  S  S  S  S  S  S  S
|-------------------------------------------------|
|-------------17-17-16----------------19----------|
|-------12----19-21-19-17-------12-12-21-21-19-17-|
|-------------17----------------------------------|
|-10-10-10-10----------17-------------20-20-19-17-|
|-------------------------15-15-15-------22-20-18-|
|
|  S  S  S  S  S  S  S  S  S  S  S  S  S  S  S  S
|-------------------------------------------------|
|-------------------------------------------------|
|-------------------------------------------------|
|--4--5--4-----------------4--5--4----------------|
|--------7--5--4--2--0-----------7--5--4--2--0----|
|-----------------------3-----------------------3-|


   S  S  S S  Q         S S  S S  Q
|------------------------------------------|
|------------------------------------------|
|------------------------------------------|
|--2--0--0----0---------1-0--0----0--------|
|
|  S  S  S S  S S  S S  S S  S S  S S  S S
|------------------------------------------|
|--------------------------------24--------|
|-17-17-17---23------------------23--------|
|------------24--------13---13---24--------|
|-17-17-17---------------------------------|
|-18-18-18--------23---13-------------23---|
|
| Gtrs III, IV
|  S  S  S S  Q         S S  S S  Q
|------------------------------------------|
|------------------------------------------|
|------------------------------------------|
|------------------------------------------|
|-----2--2----2---------3-2--2----2--------|
|--2--0--0----0---------1-0--0----0--------|


   S S  S S  E    E    S S  S S  Q
|-----------------------------------------|
|-----------------------------------------|
|-----------------------------------------|
|--1-0--0----3----0----1-0--0----0--------|
|
|  S S  S S  S S  S S  S S  S S  S S  S S
|-----------------------------------------|
|---------------------15------------------|
|-----------12------------------12--------|
|-13---13---16---13---13---13---16---13---|
|-----------------------------------------|
|-13------------------13------------------|
|
|  S S  E    E    E    S S  S S  Q
|-----------------------------------------|
|-----------------------------------------|
|-----------------------------------------|
|-----------------------------------------|
|--3-2--2----5----2----3-2--2----2--------|
|--1-0--0----3----0----1-0--0----0--------|


   S S  S S  Q         S S  S S  Q
|-----------------------------------------|
|-----------------------------------------|
|-----------------------------------------|
|--1-0--0----0---------1-0--0----0--------|
|
|  S S  S S  S S  S S  S S  S S  S S  S S
|-----------------------------------------|
|-----------------------------------------|
|-----------12------------------12--------|
|-13---13---16---13---13---13---16---13---|
|-----------------------------------------|
|-13------------------13------------------|
|
|  S S  S S  Q         S S  S S  Q
|-----------------------------------------|
|-----------------------------------------|
|-----------------------------------------|
|-----------------------------------------|
|--3-2--2----2---------3-2--2----2--------|
|--1-0--0----0---------1-0--0----0--------|


   S S  S S  E    E    H
|-----------------------------------------|
|-----------------------------------------|
|-----------------------------------------|
|--1-0--0----3----0----0------------------|
|
|  S S  S S  S S  S S  S S  S S  S S  S S
|-----------------------------------------|
|---------------------24------------------|
|-----------12--------23-------------20---|
|-13---13---16---13---24------------------|
|---------------------24------------------|
|-13-----------------------23---23---21---|
|
|  S S  E    E    E    H
|-----------------------------------------|
|-----------------------------------------|
|-----------------------------------------|
|-----------------------------------------|
|--3-2--3----5----2----2------------------|
|--1-0--1----3----0----0------------------|


  +H                    S S  S  S  S  S  S S
|--------------------------------------------|
|--------------------------------------------|
|--------------------------------------------|
|-(0)-------------------3-0--0--0--3--0--0-0-|
|
|  S  S  S S  S S  S S  E    S  S  S  S  S S
|--------------------------------------------|
|----------------------24---10-10------------|
|-20----20---20---20--------------------10-9-|
|----------------------24---------14---------|
|---------------------------------15---------|
|-------21--------21--------------13-12------|
|
| +H                    S S  S  S  S  S  S S
|--------------------------------------------|
|--------------------------------------------|
|-----------------------0----------0---------|
|-------------------------2--2--2-----2--2-2-|
|-(2)----------------------------------------|
|-(0)----------------------------------------|


   S  S S  S S  S S  S S  S S  S S  S S  S
|------------------------------------------|
|------------------------------------------|
|------------2-------------------2---------|
|--3--0----0----0----0-3--0----0----0----0-|
|
|  S  S S  S S  S S  S S  S S  S S  S S  S
|----22-0-22---22-0-22-0-22-0-22-0-22-0-22-|
|------------7-----------------------------|
|-12---------------------------------------|
|-16---------------------------------------|
|------------------------------------------|
|------------------------------------------|
|
|  S  S S  S S  S S  S S  S S  S S  S S  S
|------------------------------------------|
|------------------------------------------|
|--0---------4---------0---------4---------|
|-----2----2----2----2----2----2----2------|
|------------------------------------------|
|----------------------------------------0-|


 2/4                   4/4
   Q        Q            S  S S  S S  S S  S S  S S  S S  S  S  S
|---------------------|-------------------------------------------|
|---------------------|-------------------------------------------|
|---------------------|--5---------9---------5---------9----------|
|--0--------3---------|-----7----7----7----7----7----7----7-----7-|
|
|  E  S  S  S  S  S S    S  S S  S S  S S  S S  S S  S S  S  S  S
|---------------------|----22-0-22---22-0-22-0-22-0-22-0-22--0-22-|
|-24-10-10------------|------------7------------------------------|
|-23-------------10-9-|-12----------------------------------------|
|-24-------14---------|-16----------------------------------------|
|----------15---------|-------------------------------------------|
|----------13-12------|-------------------------------------------|
|
|  Q        Q            S  S S  S S  S S  S S  S S  S S  E.
|---------------------|-------------------------------------------|
|---------------------|-------------------------------------------|
|---------------------|-------------------------------------------|
|--2------------------|-------------------------------------------|
|--2--------5---------|--5---------9---------5---------9----------|
|--0--------3---------|-----7----7----7----7----7----7----7-------|


   S  S S  S S  S S  S S  S S  S S  S  S  S
|-------------------------------------------|
|-------------------------------------------|
|--6---------9---------6---------9----------|
|-----7----7----7----7----7----7----7-----7-|
|
|  S  S S  S S  S S  S S  S S  S S  S  S  S
|----22-0-22---22-0-22-0-22-0-22-0-22--0-22-|
|------------7------------------------------|
|-------------------------------------------|
|-16----------------------------------------|
|-------------------------------------------|
|-15----------------------------------------|
|
|  S  S S  S S  S S  S S  S S  S S  E.
|-------------------------------------------|
|-------------------------------------------|
|-------------------------------------------|
|-------------------------------------------|
|--6---------9---------6---------9----------|
|-----7----7----7----7----7----7----7-------|


  W
|------------------------------------------|
|------------------------------------------|
|------------------------------------------|
|-3----------------------------------------|
|
| S S  S S  S S  S  S  S S  S S  S  S  S S
|-5----------------------------------------|
|-5---15---15---15---------16---------14---|
|--------------------------19---------17---|
|-------------------------------------14---|
|--------------------------19--------------|
|----------15------15-15--------15-15------|
|
| W
|------------------------------------------|
|------------------------------------------|
|------------------------------------------|
|------------------------------------------|
|-5----------------------------------------|
|-3----------------------------------------|


   S  S  E   +S  S  E    S  S  E   +E     E
|---------------------------------------------|
|---------------------------------------------|
|------------------------2--2-----------------|
|--3--0--0---(0)----0----------0---(0)----0---|
|
|  S  S  S S  S  S  S S  S  S  S S  S  S  S S
|----22---------------------0-----------------|
|------------15----15-------------------------|
|-------20-------------------------12---------|
|-16--------------------13----13---13----13---|
|---------------------------------------------|
|-13---------15---------13--------------------|
|
| Gtr III
|  S  S  E   +Q         +H
|--3--3---------------------------------------|
|--------5---(5)--------(5)-------------------|
|--0--0---------------------------------------|
|--------2---(2)--------(2)-------------------|
|---------------------------------------------|
|---------------------------------------------|


   S  S  E    E     E    S  S  E     E    E
|---------------------------------------------|
|---------------------------------------------|
|-------------2----------------------0--------|
|--3--3--0----------0----3--3--0----------0---|
|
|  S  S  S S  S  S  S S  S  S  S  S  S S  S S
|----22---------------------------------------|
|------------15----15---------------18---18---|
|-------20------------------------------------|
|-13--------------------13----13----19---19---|
|---------------------------------------------|
|-13---------15---------13-------13-15---15---|
|
|  S  S  E   +Q         +H
|--3--3---------------------------------------|
|--------5---(5)--------(5)-------------------|
|--0--0---------------------------------------|
|--------2---(2)--------(2)-------------------|
|---------------------------------------------|
|---------------------------------------------|


   S  S  E   +E     E    S  S  E   +E     E
|---------------------------------------------|
|---------------------------------------------|
|------------------------5--5--7---(7)--------|
|--3--3--0---(0)----0---------------------0---|
|
|  S  S  S S  S  S  S S  S  S  S S  S  S  S S
|-----0--------------------22-----------------|
|----------------------------------15----15---|
|------------12---------------20--------------|
|-13----13---13----13---13--------------------|
|---------------------------------------------|
|-13--------------------13---------15---------|
|
| +H                     S  S  E   +Q
|------------------------7--7-----------------|
|-(5)--------------------------5---(5)--------|
|------------------------4--4-----------------|
|-(2)--------------------------2---(2)--------|
|---------------------------------------------|
|---------------------------------------------|


   S  S  E    E    E     S S E Q     S S  S S  Q     S S  S S  Q
|---------------------------------|----------------------------------|
|---------------------------------|----------------------------------|
|-------------2-------------------|----------------------------------|
|--3--3--0---------0-----0--------|--2-0--0----0-----1-0--0----0-----|
|
|  S  S  S S  S S  S  S  S S E Q     E    E    E  E  E    E    E  E
|-----0---------------------------|----------------------------------|
|---------------------------------|-----------15-15------------------|
|------------12------10-12--------|-23------------------------12-----|
|-13----13---13---13--------------|-24--------------13---13---13-13--|
|-----------------------10--------|-24-------------------------------|
|-13-----------------12-12--------|------23---15----13---------------|
|
| +H                     S S E Q     S S  S S  Q     S S  S S  Q
|---------------------------------|----------------------------------|
|-(5)-----------------------------|----------------------------------|
|---------------------------------|----------------------------------|
|-(2)-----------------------------|----------------------------------|
|------------------------2--------|----2--2----2-----3-2--2----2-----|
|------------------------0--------|--2-0--0----0-----1-0--0----0-----|


   S S  S S  E  E  S S  S S  Q       S S  S S  Q     S S  S S  Q
|---------------------------------|---------------------------------|
|---------------------------------|---------------------------------|
|---------------------------------|---------------------------------|
|--1-0--0----3--0--1-0--0----0----|--2-0--0----0-----1-0--0----0----|
|
|  E    E    E  E  E    E    E  E    S S  E    E  E  E    E    E  E
|---------------------------------|---------------------------------|
|---------------------------------|-----------------21--------15-15-|
|-----------12--------------12----|-----------12----20---20---------|
|-13---13---13-13-13---13---13-13-|-16---13---13-13-22--------------|
|---------------------------------|-----------------21--------------|
|-13--------------13-----------13-|-13------------------------15----|
|
| Gtrs III, IV
|  S S  E    E  E  S S  S S  Q       S S  S S  Q     S S  S S  Q
|---------------------------------|---------------------------------|
|---------------------------------|---------------------------------|
|---------------------------------|---------------------------------|
|---------------------------------|---------------------------------|
|--3-2--2----5--2--3-2--2----2----|----2--2----2-----3-2--2----2----|
|--1-0--0----3--0--1-0--0----0----|--2-0--0----0-----1-0--0----0----|


   S S  S  S  E  E     S  S  S  S  Q
|---------------------------------------------|
|---------------------------------------------|
|---------------------------------------------|
|--1-0--0-----3--0-----1--0--0-----0----------|
|
|  S S  S  S  E  S  S  S  S  S  S  S  S  S  S
|-10------------------------------------------|
|--7-5-15----18-15-------------------17-16-16-|
|------------------------12-12-12-12----19-17-|
|------------19----------------------17----15-|
|------------------------------------------15-|
|---------13-15----15-15-15----15----15----18-|
|
|  S S  E     E  E     S  S  S  S  Q
|---------------------------------------------|
|---------------------------------------------|
|---------------------------------------------|
|---------------------------------------------|
|--3-2--2-----5--2-----3--2--2-----2----------|
|--1-0--0-----3--0-----1--0--0-----0----------|


                                            2/4
   S  S S  S S  S S  S S  S S  S S  S S  S    Q        Q
|------------------------------------------|---------------------|
|------------------------------------------|---------------------|
|------------2-------------------2---------|---------------------|
|--3--0----0----0----0-3--0----0----0----0-|--0--------3---------|
|
|  S  S S  S S  S S  S S  S S  S S  S S  S    E  S  S  S  S  S S
|----22-0-22---22-0-22-0-22-0-22-0-22-0-22-|---------------------|
|------------7-----------------------------|-24-10-10------------|
|------------------------------------------|-23-------------10-9-|
|-16---------------------------------------|-24-------14---------|
|------------------------------------------|----------15---------|
|-15---------------------------------------|----------13-12------|
|
|  S  S S  S S  S S  S S  S S  S S  S S  S    Q        Q
|------------------------------------------|---------------------|
|------------------------------------------|---------------------|
|--0---------4---------0---------4---------|---------------------|
|-----2----2----2----2----2----2----2------|--2------------------|
|------------------------------------------|--2--------5---------|
|----------------------------------------0-|--0--------3---------|


 4/4                                         2/4
   S  S S  S S  S S  S S  S S  S S  S  S  S    Q        Q
|-------------------------------------------|---------------------|
|-------------------------------------------|---------------------|
|--5---------9---------5---------9----------|---------------------|
|-----7----7----7----7----7----7----7-----7-|--7--------5---------|
|
|  S  S S  S S  S S  S S  S S  S S  S  S  S    E  S  S  S  S  S S
|----22-0-22---22-0-22-0-22-0-22-0-22--0-22-|---------------------|
|------------7------------------------------|-24-10-10------------|
|-12----------------------------------------|-23-------------10-9-|
|-16----------------------------------------|-24-------14---------|
|-------------------------------------------|----------15---------|
|-------------------------------------------|----------13-12------|
|
|  S  S S  S S  S S  S S  S S  S S  E.         Q        Q
|-------------------------------------------|---------------------|
|-------------------------------------------|---------------------|
|-------------------------------------------|---------------------|
|-------------------------------------------|---------------------|
|--5---------9---------5---------9----------|--9--------7---------|
|-----7----7----7----7----7----7----7-------|--7--------5---------|


 4/4                                        2/4
   S  S S  S S  S S  S S  S S  S S  S S  S    Q        Q
|------------------------------------------|---------------------|
|------------------------------------------|---------------------|
|------------2-------------------2---------|---------------------|
|--3--0----0----0----0-3--0----0----0----0-|--0--------3---------|
|
|  S  S S  S S  S S  S S  S S  S S  S S  S    E  S  S  S  S  S S
|----22-0-22---22-0-22-0-22-0-22-0-22-0-22-|---------------------|
|------------7-----------------------------|-24-10-10------------|
|-12---------------------------------------|-23-------------10-9-|
|-16---------------------------------------|-24-------14---------|
|------------------------------------------|----------15---------|
|------------------------------------------|----------13-12------|
|
|  S  S S  S S  S S  S S  S S  S S  S S  S    Q        Q
|------------------------------------------|---------------------|
|------------------------------------------|---------------------|
|------------------------------------------|---------------------|
|--5---------9---------5---------9---------|--2------------------|
|-----7----7----7----7----7----7----7------|--2--------5---------|
|----------------------------------------0-|--0--------3---------|


 4/4
   S  S S  S S  S S  S S  S S  S S  S  S  S
|-------------------------------------------|
|-------------------------------------------|
|--5---------9---------5---------9----------|
|-----7----7----7----7----7----7----7-----7-|
|
|  S  S S  S S  S S  S S  S S  S S  S  S  S
|----22-0-22---22-0-22-0-22-0-22-0-22--0-22-|
|------------7------------------------------|
|-12----------------------------------------|
|-16----------------------------------------|
|-------------------------------------------|
|-------------------------------------------|
|
|  S  S S  S S  S S  S S  S S  S S  E.
|-------------------------------------------|
|-------------------------------------------|
|-------------------------------------------|
|-------------------------------------------|
|--5---------9---------5---------9----------|
|-----7----7----7----7----7----7----7-------|


   S  S S  S S  S S  S S  S S  S S  S  S  S
|--------------------------------------------|
|--------------------------------------------|
|--6---------9---------6---------9-----------|
|-----7----7----7----7----7----7----7-----7--|
|
|  S  S S  S S  S S  S S  S S  S S  S  S  S
|----22-0-22---22-0-22-0-22-0-22-0-22--0-22--|
|------------7-------------------------------|
|--------------------------------------------|
|-16-----------------------------------------|
|--------------------------------------------|
|-15-----------------------------------------|
|
|  S  S S  S S  S S  S S  S S  S S  E.
|--------------------------------------------|
|--------------------------------------------|
|--------------------------------------------|
|--------------------------------------------|
|--6---------9---------6---------9-----------|
|-----7----7----7----7----7----7----7--------|


   W
|--------------------------------------------|
|--------------------------------------------|
|--------------------------------------------|
|--3-----------------------------------------|
|
|  S  S  S S  S  S  S  S  S S  S S  S S  S S
|--------------------------------------------|
|----------5-15------------------------------|
|---------------------12-12---12---12---12---|
|-24---------------13------------------------|
|-24-----------------------------------------|
|-------23---15-13---------------------------|
|
|  H.                               Q
|--------------------------------------------|
|--------------------------------------------|
|--------------------------------------------|
|--------------------------------------------|
|--5-----------------------------------------|
|--3-----------------------------------------|


   S  S  S  S  S  S  S  S  S  S  S  S  S  S  S  S
|-------------------------------------------------|
|-------------------------------------------------|
|--------------2----------------------------------|
|--3--0-----0-----0-----0--3--0-----0--0-----0--0-|
|
|  S  S  S  S  S  S  S  S  S  S  S  S  S  S  S  S
|-23-22-23-22-------23-22----22-23-22-------23-22-|
|-------------13----------13----------13----------|
|----19-------15----------15----------15----------|
|-------------14----------14----------14----------|
|-------------------------------------------------|
|-22-18----------12----------------------12-------|
|
|  S  S  E     S  S  S  S  S  S  S  S  E     S  S
|--3--3-------------------------------------------|
|--------5----------------------------------------|
|--0--0-------------------------------------------|
|--------2----------------------------------------|
|--------------2----------------------------------|
|-----------------0-----0--3--0-----0--0-----0--0-|


   S  S  S  S  S  S  S  S  S  S  S  S  E     S  S
|-------------------------------------------------|
|-------------------------------------------------|
|--------------2----------------------------------|
|--3--0-----0-----0-----0--3--0-----0--0-----0--0-|
|
|  S  S  S  S  S  S  S  S  S  S  S  S  S  S  S  S
|-------23-22----22-23-22-------23-22----22-23-22-|
|-13----------13----------13----------13----------|
|-15----------15----------15----------15----------|
|-14----------14----------14----------14----------|
|-------------------------------------------------|
|----12----------------------12-------------------|
|
|  S  S  S  S  S  S  S  S  S  S  S  S  E     S  S
|-------------------------------------------------|
|-------------------------------------------------|
|-------------------------------------------------|
|-------------------------------------------------|
|--------------2----------------------------------|
|--3--0-----0-----0-----0--3--0-----0--0-----0--0-|


   S  S  S  S  S  S  S  S  S  S S  S  E     S  S
|------------------------------------------------|
|------------------------------------------------|
|--5-----------9-----------5---------------------|
|-----7-----7-----7-----7-----7----7--7-----7--7-|
|
|  S  S  S  S  S  S  S  S  S  S S  S  S  S  S  S
|-------23-22----22-23-22----22---22----22-23-22-|
|-13----------13----------13----5----13----------|
|-15----------15----------15---------15----------|
|-14----------14----------14---------14----------|
|------------------------------------------------|
|----12------------------------------------------|
|
|  S  S  S  S  S  S  S  S  S  E    S  E     S  S
|------------------------------------------------|
|------------------------------------------------|
|------------------------------------------------|
|------------------------------------------------|
|--5-----------9-----------5---------------------|
|-----7-----7-----7-----7-----7----7--7-----7--7-|


   S S  S S  S  S  S  S  S  S  S  S  S  S  S  S
|-----------------------------------------------|
|-----------------------------------------------|
|------------2-----------------------2----------|
|--3-0----0-----0-----0--3--0-----0-----0-----0-|
|
|  S S  S S  S  S  S  S  S  S  S  S  S  S  S  S
|-----------------------------------------------|
|---------5-15----------------------------------|
|-----------------------12-10-------12-10-10-10-|
|-24--------------13----13----13----13----13----|
|-24--------------------------------------------|
|------23---15-13----13----------13-------------|
|
|  S S  S S  S  S  S  S  S  S  S  S  S  S  S  S
|-----------------------------------------------|
|-----------------------------------------------|
|-----------------------------------------------|
|--5---------9-----------5-----------9----------|
|----7----7-----7-----7-----7-----7-----7-----7-|
|-----------------------------------------------|


   S S  S S  S  S  S  S  S  S  S  S  S  S  S S
|----------------------------------------------|
|----------------------------------------------|
|------------2-----------------------2---------|
|--3-0----0-----0-----0--3--0-----0-----0----0-|
|
|  S S  S S  S  S  S  S  S  S  S  S  S  S  S S
|----------------------------------------------|
|-----------------------------------------18---|
|-12--------12-10-------12-10-------12-10------|
|-13---13---13----13----13----13----13----19---|
|----------------------------------------------|
|------13------------13----------13-------15---|
|
|  S S  S S  S  S  S  S  S  S  S  S  S  S  S S
|----------------------------------------------|
|----------------------------------------------|
|----------------------------------------------|
|--5---------9-----------5-----------9---------|
|----7----7-----7-----7-----7-----7-----7----7-|
|----------------------------------------------|


   S S  S S  S S  S S  S S  S S  S S  S S
|-----------------------------------------|
|-----------------------------------------|
|------------2-------------------2--------|
|--3-0--0-0----0--0-0--3-0--0-0----0--0-0-|
|
|  S S  S S  S S  S S  S S  S S  S S  S S
|--8--------------------------------------|
|--7---------------------------------21---|
|-10---10-9-10-9-10-9-10-9-10-9-10-9-23---|
|------13---13---13---13---13---13---22---|
|----7------10--------10--------10--------|
|-----------------------------------------|
|
| Gtr III
|  S S  S S  S S  S S  S S  S S  S S  S S
|-----------------------------------------|
|-----------------------------------------|
|-----------------------------------------|
|--5---------9---------5---------9--------|
|----7--7-7----7--7-7----7--7-7----7--7-7-|
|-----------------------------------------|


                    Q=Q=8Q=Q=Q=Q=Q=Q=69
   S  S  S  S S S S S  S S S S S S S S
|--------------------------------------|
|--4--5--4-------------4-5-4-----------|
|--------7--5-4-2-0--------7-5-4-2-0---|
|-------------------3----------------3-|
|
|  S  S  E    Q        H
|--------------------------------------|
|-21------------------24---------------|
|-23------------------23---------------|
|---------------------24---------------|
|---------------------24---------------|
|--------------------------------------|
|
|  S  S  S  S S S S S  S S S S S S S S
|--------------------------------------|
|--------------------------------------|
|--------------------------------------|
|----------------------4-5-4-----------|
|--9-10--9-----------------7-5-4-2-0---|
|-------12-10-9-7-5-3----------------3-|


  Q=Q=Q=Q=5Q=5Q=5Q=5Q=50
  S S S  S  S  S  S  S H      W
|---------------------------|------*|
|-4-5-4---------------------|------*|
|-----7--5--4--2--0---------|------*|
|--------------------3------|------*|
|
| S S S  S  S  S  S  S H      W
|---------------------------|------*|
|-7-7-7-19-19-19------------|------*|
|-------21-21-19-17-17------|------*|
|-----5---------------------|------*|
|-------------19-17---------|------*|
|-------------20-18-18------|------*|
|
| S S S  S  S  S  S  S H      W
|---------------------------|------*|
|---------------------------|------*|
|---------------------------|------*|
|-4-5-4---------------------|------*|
|-----7--5--4--2--0---------|------*|
|--------------------3------|------*|


 

Duration Legend
---------------
W - whole; H - half; Q - quarter; E - 8th; S - 16th; T - 32nd; X - 64th; a - acciaccatura
+ - note tied to previous; . - note dotted; .. - note double dotted
Uncapitalized letters represent notes that are staccato (1/2 duration)
Irregular groupings are notated above the duration line
Duration letters will always appear directly above the note/fret number it represents the
duration for.  Duration letters with no fret number below them represent rests.  Multi-
bar rests are notated in the form Wxn, where n is the number of bars to rest for.  Low
melody durations appear below the staff

Tablature Legend
----------------
 h   - hammer-on
 p   - pull-off
 b   - bend
 pb  - pre-bend
 r   - bend release (if no number after the r, then release immediately)
 /\  - slide into or out of (from/to "nowhere")
 s   - legato slide
 S   - shift slide
 - natural harmonic
[n]  - artificial harmonic
n(n) - tapped harmonic
 ~   - vibrato
 tr  - trill
 T   - tap
 TP  - trem. picking
 PM  - palm muting
\n/  - tremolo bar dip; n = amount to dip
 \n  - tremolo bar down
 n/  - tremolo bar up
/n\  - tremolo bar inverted dip
 =   - hold bend; also acts as connecting device for hammers/pulls
 <> - volume swell (louder/softer)
 x   - on rhythm slash represents muted slash
 o   - on rhythm slash represents single note slash

Misc Legend
-----------
 |  - bar
||  - double bar
||o - repeat start
o|| - repeat end
*|  - double bar (ending)
 :  - bar (freetime)
 $  - Segno
 &  - Coda
Tempo markers -  = BPM(8/16=s8/s16), where s8 = swing 8ths, s16 = swing 16ths
Comments