Metallica - The God That Failed Chords & Tabs

 

The God That Failed Chords & Tabs

Metallica Chords & Tabs

Version: 1 Type: Tab 1 rating
1 star 2 stars 3 stars 4 stars 5 stars
comments

The God That Failed Tab

   
Metallica
The God That Failed



.  - palm mute           
/  - slide up to
\  - slide down to       
~  - vibrato
h  - hammer on   
p  - pull off            
b  - Bend
r release bend
~  - vibrato bend
() - ghost note, sustained note


Tunning Eb Bb Gb Db Ab Eb

after the bass and drum into

|-----------------------------|-----------------------------|
|-----------------------------|-----------------------------|
|--12-12\(9)------------------|--12-12\(9)------------------| Gtr 1
|-----------------------------|-----------------------------|
|--10-10\(7)------------------|--10-10\(7)------------------|
|-----------------------------|-----------------------------|
|
|-----------------------------|-----------------------------|
|-----------------------------|-----------------------------|
|------------------16-16\(9)--|--(9)------------------------| Gtr 2
|-----------------------------|-----------------------------|
|------------------14-14\(7)--|--(7)------------------------|
|-----------------------------|-----------------------------|

|-----------------------------|-----------------------------|
|-----------------------------|-----------------------------|
|--(9)-------------16-16\(9)--|--(9)------------------------| Gtr 1
|-----------------------------|-----------------------------|
|--(7)-------------14-14\(7)--|--(7)-------------------2/---|
|-----------------------------|-----------------------------|
|
|-----------------------------|-----------------------------|
|-----------------------------|-----------------------------|
|--12-12\(9)------------------|--12-12\(9)------------------| Gtr 2
|-----------------------------|-----------------------------|
|--10-10\(7)------------------|--10-10\(7)------------------|
|-----------------------------|-----------------------10\---|

Riff A (both Gtrs)
|-------------------------------------------------------------------------------|
|-------------------------------------------------------------------------------|
|-------------------------------------------------------------------------------|
|------------9-9--------------9-----------7---------------------------------9---|
|-10-10-7--------7----10-10-7---7-10-10-7---7--10-10-7----5-5-7-----10-10-7---7-|
|---------0--------0------------------------------------0--------0--------------|
                                                                            
|------------------------|
|---Gtr2-----------------|
|------------------------|
|-4h5p4------------------|
|-2-----7-5-4\(2)--------|
|-0---------------5-3----|
Gtr1    Pm.       ...     

Rhy Fill 1 (both Gtrs)
|-----------------------------------------|
|-----------------------------------------|
|-----------------------------------------|
|-----------------------------------------|
|---2-2-2—--3-2-2-2---3-2-2-5-—2--3-2-2-2-|
|-2-0-0-0---1-0-0-0---1-0-0-3--0—-1-0-0-0-|
  PM....    ......    .....       .....

Rhy Fig 1
|-----------------------------------------|
|-----------------------------------------|
|-----------------------------------------|
|-----------------------------------------|
|-3-2-2-2—--3-2-2-2---3-2-2-5-—2--3-2-2-2-|
|-1-0-0-0---1-0-0-0---1-0-0-3--0—-1-0-0-0-|
  PM....    ......    .....       .....

Verse 1 
|-----------------------------------------|-----------------------------------------|
|-----------------------------------------|-----------------------------------------|
|-----------------------------------------|-----------------------------------------|
|-----------------------------------------|-----------------------------------------|
|-3-2-2-2—--3-2-2-2---3-2-2-5-—2--3-2-2-2-|-3-2-2-2—--3-2-2-2---3-2-2-5--2--2-3-3-3-|
|-1-0-0-0---1-0-0-0---1-0-0-3--0—-1-0-0-0-|-1-0-0-0---1-0-0-0---1-0-0-3--0--0-1-1-1-|
  PM....    ......    .....       .....     PM....    ......    .....       .....

Rhy Fig 2
|------------------------------------------|
|------------------------------------------|
|*----------------------------------------*|
|*----------------------------------------*|
|--3---3-3--3---3-3--3---3-5---5----3-3-3--|
|--1-0-1-1--1-0-1-1--1-0-1/3-0-3--0-1-1-1--|
   PM...    .....    ...   ...    .....
Riff B
|-------------------------------------------------|
|-------------------------------------------------|
|-------------------------------------------------|
|------------9-9--------------9-----------7-------|
|-10-10-7--------7----10-10-7---7-10-10-7---------|
|---------0--------0------------------------3/(7)-|

Chorus
|-----------------------------------------|---------------------------------------|
|-----------------------------------------|---------------------------------------|
|-----------------------------------------|---------------------------------------|
|---------9--------------9------9---------|---------------------------------------|
|-10-7--7---7--7-10-7--7---7----7----5----|---------9--------------9----9----5----|
|-----------------------------0-0----3----|-10-7--7---7--7-10-7--7---7--7----5----|

|-----------------------------------------|-------------------------------|
|-----------------------------------------|-------------------------------|
|-----------------------------------------|-------------------------------|
|---------9--------------9------9---------|-------------------------------|
|-10-7--7---7--7-10-7--7---7----7----5----|---------9--------------9------|
|-----------------------------0-0----3----|-10-7--7---7--7-10-7--7---7----|

                      (end chorus)
|---------------------------------|--------------------|
|---------------------------------|--------------------|
|---------------------------------|--------------------|
|---------------------------------|--------------------|
|-----------9--------------9------|-5------------------|
|-7-11-7--7---7--7-11-7--7---7—7\-|-3------------3/(7)-|

play riff A x1

verse 2: Rhy Fill 1 x1, then Rhy Fig 1 x1

play Rhy Fig 2 x 2 

play riff B x1

repeat chorus

Gtrs I&II (in slashes)
 G5                 E5                      B5             
                                                 
Gtr III
|------------------|-----------------------|--------------------------------------|
|------------------|-----------------------|--------------------------------------|
|------------------|-----------------------|--------------------------------12----|
|------------------|--tr~~~~~~~~~~~~~~~~~~-|--tr~~~~~~~~--tr~~~~----(12)/14----14-|
|------------------|-7(10)-----------------|-7(9)--------6(9)----(6)--------------|
|------------------|-----------------------|--------------------------------------|


Gtrs I&II play riff A (1st 2 bars only)

Gtr III
|------------------------------------------|--------------------------------|
|---------12-------------------------------|--------------------------------|
|-14b~~~-----14-12-11-12-11------11h12p11\-|-\(7)--7---7-7-(7)/9---9---(9)\-|
|---------------------------14-------------|---------9----------------------|
|------------------------------------------|--------------------------------|
|------------------------------------------|--------------------------------|

Gtrs I&II (in slashes)
 E5                                  B5             
                                            
Gtr III
|---0---0---0----0----0----0---0----|----0---0---0---0---0---0---0----0-|
|-5/--7/--8/--10/--12\--10\--8\--7/-|-/8\--7\--5\--4/--5/--7/--8/--10---|
|-----------------------------------|-----------------------------------|
|-----------------------------------|-----------------------------------|
|-----------------------------------|-----------------------------------|
|-----------------------------------|-----------------------------------|


Gtrs I&II play riff A (1st 2 bars only)

Gtr III                                                                              w/Bar
|-(10)/12------12\(1)/(12)------12\------|------------------------------------------------|
|-(10)/12------12\(1)/(12)------12\------|-------------------------------------------15---|
|----------------------------------------|------121414bp(12)---14bp(12)-14bp(12)--12-14b--|
|------(trem)----------(trem)---------7/-|-/(14)------------14------------------14--------|
|----------------------------------------|------------------------------------------------|
|----------------------------------------|------------------------------------------------|


Gtrs I&II (in slashes)
E5                                        B5             
                                                  
Gtr III                                                    h p             h p  
|----------------------------------------|-------------------------------141514--141517-|
|----------------------------------------|---------------141514--141517------17---------|
|-9/11/12/14/16-\14\12/16-xx14-xx12-11-9-|-9--7-6---6-7----------16---------------------|
|----------------------------------------|--------9-------------------------------------|
|-7/-9/10/12/14-\12\10/14-xx12-xx10--9-7-|----------------------------------------------|
|----------------------------------------|----------------------------------------------|


Gtrs I&II play riff A (1st 2 bars only)

Gtr III
|-19-1919191919-19191919-1919191919-19191919-|
|--------------------------------------------|
|--------------------------------------------|
|--------------------------------------------|
|--------------------------------------------|
|--------------------------------------------|


|--1919171519-19171519-191715--15171917151715—151719--|
|-----------------------------------------------------|
|-----------------------------------------------------|
|-----------------------------------------------------|
|-----------------------------------------------------|
|-----------------------------------------------------|


Gtrs I&II (in slashes)
E5                                                   
                                               
Gtr III
    p p      p p      p p      p p       
|-191715---191715---191715---191715--15-|
|-------17-------17-------17-------17---|
|---------------------------------------|
|---------------------------------------|
|---------------------------------------|
|---------------------------------------|


Gtrs I&II (in slashes)
B5
[ Tab from: http://www.guitartabs.cc/tabs/m/metallica/the_god_that_failed_tab.html ]
Gtr III
   p p        p p       p p       p p     p p     pp  
|-191715\14-171514\12-151412\10-141210\9-12109\7-1097—7-----|
|----------------------------------------------------8---7--|
|-----------------------------------------------------------|
|-----------------------------------------------------------|
|-----------------------------------------------------------|
|-----------------------------------------------------------|


  Gtr I
|-------------------------------------|------------------------------|
|-------------------------------------|------------------------------|
|-------------------------------------|------------------------------|
|-4h5p4-------------4h5p4-------------|------------------------------|
|-------7-5-4\2-----------7-5-4\2-----|---2-2--2-----3-2-2--2--------|
|---------------5-3---------------5-3-|-2-0-0--0-----1-0-0--0--------|
|       PM.     ...       ...     ...........        ..... 
| Gtr II
|-------------------------------------|------------------------------|
|-------------------------------------|------------------------------|
|-------------------7h9p7-------------|------------------------------|
|------------------------10-9-7\5-4---|------------------------------|
|-----------------------------------7-|--------2—----3-2-2--2--------|
|-------------------------------------|-5-3-3--0-----1-0-0--0--------|
|                        PM..     ...........        .....
|
|Gtr III                                       Full Full
|-------------------------------------|------22b--22b-rbrb(22)~-1922-|
|-------------------------------------|------------------------------|
|-------------------------------------|------------------------------|
|-------------------------------------|------------------------------|
|-------------------------------------|------------------------------|
|-------------------------------------|------------------------------|


Gtr III
   h p
|-192219--19---19--19--19--19--19--19-|
|-------22--22---22--22--22--22--22---|
|-------------------------------------|
|-------------------------------------|
|-------------------------------------|
|-------------------------------------|
| Gtrs I&II
|-------------------------------------|
|-------------------------------------|
|-------------------------------------|
|-------------------------------------|
|-3--2--2---5----2---3--2--2---2------|
|-1--0--0---3----0---1--0--0---0------|
  PM.....            .......

Gtr III
    p       p  p        p  p       p       p   p         Full
|-2219--1922192219--1922192219--192219--1922192219-19-----------|
|-----22----------22----------22------22-------------22-22brp19-|
|---------------------------------------------------------------|
|---------------------------------------------------------------|
|---------------------------------------------------------------|
|---------------------------------------------------------------|
| Gtrs I&II
|---------------------------------------------------------------|
|---------------------------------------------------------------|
|---------------------------------------------------------------|
|---------------------------------------------------------------|
|-----3---2---2------2-----------3---2---2------2---------------|
|-----1---0---0------0-----------1---0---0------0---------------|
      PM.......                  .........


Gtr III                                                       (hold note for another bar)
   Full p               Full...........................           w/ bar
|-----------------------------------------|---------------------------------|
|-22b--2219-------------------------------|---------------------------------|
|----------21-19----19-21b-21-21-21-21-21-|-21-21-21-21r--19----------------|
|----------------21-----------------------|------------------21—(21)~~~~~~~-|
|-----------------------------------------|---------------------------------|
|-----------------------------------------|---------------------------------|
| Gtrs I&II
|-----------------------------------------|---------------------------------|
|-----------------------------------------|---------------------------------|
|-----------------------------------------|---------------------------------|
|-----------------------------------------|---------------------------------|
|--3--2--2---5----2---2-------------------|--(2)----------10-7-7-7-10-7-7-7-|
|--1--0--0---3----0---0-------------------|--(0)----------------------------|
   PM.....                                                PM...............


repeat chorus

Gtrs I&II
|--------------------------|
|--------------------------|
|--------------------------|
|--------------------------|
|--5-----------------------|
|--3-----------------------|


|-----------------------------|-----------------------------|
|-----------------------------|-----------------------------|
|--12-12\(9)------------------|--12-12\(9)------------------| Gtr 1
|-----------------------------|-----------------------------|
|--10-10\(7)------------------|--10-10\(7)------------------|
|-----------------------------|-----------------------------|
|
|-----------------------------|-----------------------------|
|-----------------------------|-----------------------------|
|------------------16-16\(9)--|--(9)------------------------| Gtr 2
|-----------------------------|-----------------------------|
|------------------14-14\(7)--|--(7)------------------------|
|-----------------------------|-----------------------------|


|-----------------------------|-------------------------|
|-----------------------------|-------------------------|
|--(9)-------------16-16\(9)--|--(9)--------9\---(rest)-| Gtr 1
|-----------------------------|----------------2--------|
|--(7)-------------14-14\(7)--|--(7)--------7\-2--------|
|-----------------------------|----------------0--------|
|
|-----------------------------|-------------------------|
|-----------------------------|-------------------------|
|--12-12\(9)------------------|--12-12\(9)-------(rest)-| Gtr 2
|-----------------------------|----------------9--------|
|--10-10\(7)------------------|--10-10\(7)-----7--------|
|-----------------------------|----------------0--------|


verse 3: play Rhy Fig 1 x2

repeat chorus

Gtrs I&II
|----------------|---------------------------------|-----------------------------|
|----------------|---------------------------------|-----------------------------|
|----------------|-12-12\(9)-----------------------|-----------------------------|
|----------------|---------------------------------|-----------------------------|
|-5--------------|-10-10\(7)-----------------------|--------2--------------------|
|-3-------3/(10)-|------------7p0--0-3p0--0-0--0-0-|-3p0--0---0--0-3p0--0-0--0-0-|
                                          PM......                      ........

Gtrs I&II
|-------------------------------|-------------------------------|
|-------------------------------|-------------------------------|
|-------------------------------|-------------------------------|
|-------------------------------|---------9--------------9------|
|---------9---------------------|-10p7--7---7--7-10p7--7---7--7-|
|-10p7--7---7--7-10p7--7-7--7-7-|-------------------------------|
                       PM......
|-------------------------------|---------------------------------|
|-------------------------------|---------------------------------|
|-------------------------------|---------------------------------|
|---------9--------------9------|--------9----------------9-------|
|-10p7--7---7--7-10p7--7---7--7-|-10-7-7---7-7-7-10-7-7-7---7-7-7-|
|-------------------------------|---------------------------------|
                                  PM.............................

this last part can be played on one guitar and sound right but here’s how its done on the album if u really need to know... 

  Gtr I
|-------------------------------------|-------------------------------------|
|-------------------------------------|-------------------------------------|
|-------------------------------------|-------------------------------------|
|-4h5p4-------------4h5p4-------------|-4h5p4-------------------------------|
|-------7-5-4\2-----------7-5-4\2-----|-------7-5-4\2-----------------------|
|---------------5-3---------------5-3-|---------------5-3-------------------|
|       PM.     ...       ...     ...  
| Gtr II
|-------------------------------------|-------------------------------------|
|-------------------------------------|-------------------------------------|
|-------------------------------------|-------------------------------------|
|-------------------7h9p7-------------|-7h9p7-------------------------------|
|------------------------10-9-7\5-4---|------10-9-7\5-4---------------------|
|-----------------------------------7-|-----------------7-------------------|
|                        PM..     ...   
| Gtr III
|-------------------------------------|-------------------------------------|
|-------------------------------------|-------------------------------------|
|-------------------------------------|-7h9p7-------------------------------|
|-------------------------------------|-------9-7-7-7-----------------------|
|-------------------------------------|--------------10-9-------------------|
|-------------------------------------|-------------------------------------|
|                                             PM.
| Gtr IV
|-------------------------------------|-------------------------------------|
|-------------------------------------|-------------------------------------|
|-------------------------------------|-7h9p7-----9-7-----------------------|
|-------------------------------------|-------9-7-----9-7-------------------|
|-------------------------------------|-------------------------------------|
|-------------------------------------|-------------------------------------|
|                                             PM.
| Gtr V (clean)                                          let ring...........
|-------------------------------------|-----------------------------0-------|
|-------------------------------------|---------------------------0---------|
|-------------------------------------|-------------------------0-----------|
|-------------------------------------|-----------------------2-------------|
|-------------------------------------|---------------------2---------------|
|-------------------------------------|-------------------0-----------------|

that’s it… parts of the solo can be played a bit diff but it doesn’t really matter... 
unless ur kirk hammett u’ll probably need to just trill some parts of the solo
i didn’t bother w/ the timing and stuff but it should all be correct... if not, too bad
and corrections, comments, etc... blah blah blah send to
rabdittohead@hotmail.com
Comments