Metallica - The Four Horsemen Chords & Tabs

 

The Four Horsemen Chords & Tabs

Metallica Chords & Tabs

Version: 3 Type: Tab 0 ratings
1 star 2 stars 3 stars 4 stars 5 stars
comments

The Four Horsemen Tab

The Four Horsemen 
by Metallica
on Kill 'em All

Tuning-EADGBe
4/4 timing 204 bpm


ph* - pinch harmonic pm.. - palm mute
h - hammer on        p - pull off
b - bend             x/// - pick scrape  
|o--o| repeat notes within the o's
 

The other tab of this song on here was hurting my ears as I tryed to play it so I
figure I would correct the tab for everyone. This will also be my first tab. =]

Intro:
guitar 1           
e|--------------||----------------|----------------|----------------|
B|--------------||----------------|----------------|----------------|
G|-------7---5--||o---------------|----------------|----------------|
D|-5-----7---5--||o---------------|----------------|----------------|
A|-3--5--5---3--||-7-5-7-5-7-5-7-5|-7-5-7-5-7-5---5|-7-5-7-5-7-5-7-5|
E|-3--3---------||-0---0---0---0--|-0---0---0---7--|-0---0---0---0--|
pm                 . . . . . . . .  . . . . . . . .  . . . . . . . . 
                  Guitar 2 will double Guitar 1 on repeat

Guitar 2
e|--------------||----------------|----------------|----------------|
B|--------------||----------------|----------------|----------------|
G|-------7---5--||----------------|----------------|----------------|
D|-5-----7---5--||----------------|----------------|----------------|
A|-3--5--5---3--||-2--------------|----------------|----------------|
E|-3--3---------||-0--------------|----------------|----------------|

Guitar 1
e|------------------|----------------|----------------|----------------|
B|------------------|----------------|----------------|----------------|
G|------------------|----------------|----------------|----------------|
D|-----ph*---7p5----|----------------|----------------|---------------0|
A|--5--5-7-5----7p5-|-7-5-7-5-7-5-7-5|-7-5-7-5-7-5---5|-7-5-7-5-7-5---0|
E|7-----------------|-0---0---0---0--|-0---0---0---7--|-0---0---0---7--|
pm. .                 . . . . . . . .  . . . . . . . .  . . . . . . .    
 
Guitar 1
e|--------------|
B|--------------|
G|-------------o|
D|-5-----7--5--o|
A|-3--5--5--3---|
E|-3--3---------| Repeat all one time with Guitar 2 playing with Guitar 1

Verse: (verse is guitar 1&2) and is repeated 3 times
e|------------|------------|-----------|------------|-----------|-----------|
B|------------|------------|-----------|------------|-----------|-----------|
G|o-----------|------------|-----------|------------|-----------|-----------|
D|o----9----9-|---9--7--7--|---9-----9-|---9--5--7--|---9-----9-|---7--12--9|
A|-----7----7-|---7--5--5--|---7-----7-|---7--3--5--|---7-----7-|---9--10--7|
E|-000---000--|000---------|000---000--|000---------|000---000--|000--------|
pm ...   ...   ...          ...   ...   ...          ...   ...   ...

e|--------------|
B|--------------|
G|-------------o|
D|--5-----7--5-o|
A|--3--5--5--3--|
E|-----3--------|
[ Tab from: http://www.guitartabs.cc/tabs/m/metallica/the_four_horsemen_tab_ver_3.html ]
chorus:(timing on this isnt right i just gave you the chords)
also played buy Guitars 1&2
e|---------------------------------------|--------------|
B|---------------------------------------|--------------|
G|---------------------------------------|--------------|
D|---------------------------------------|--------------|
A|-9---------9-7---------7-5---------5-4-|x////////-----|
E|-7---------7-5---------5-3---------3-2-|-----////////-|

e|---------------------------------------|---------------|
B|---------------------------------------|---------------|
G|---------------------------------------|---------------|
D|---------------------------------------|-4---5---4-----|
A|-9---------9-7---------7-5---------5-4-|-2---3---2---5-|
E|-7---------7-5---------5-3---------3-2-|-------------3-|

Repeat verse and chorus riffs
then play

Guitar 1&2                        x2
e|----------------|----------------|----------------|-------------|
B|----------------|----------------|----------------|-------------|
G|----------------|----------------|----------------|-------------|
D|----------------|----------------|-------10\9-9---|-------------|
A|-2--------------|----------------|-------8-\7-7---|-------------|
E|-0--------------|--00000--00000--|00000-----------|00000--00000-|
PM                   .....  .....   .....            .....  .....

e|----------------|--------------|-----------|
B|----------------|--------------|-----------|
G|----------------|--------------|-----------|
D|-------10\9-9---|--------------|-------10--|
A|-------8-\7-7---|--------------|-------8---|
E|00000-----------|00000--00000--|00000------|
  .....            .....  .....   .....

Guitar1
e|-------------------------|---------------|------------|
B|-------------------------|---------------|------------|
G|-------------------------|---------------|------------|
D|-------------------------|---------------|---5--6--7--|
A|-7-5---5-----------------|-7-5---5-------|---3--4--5--|
E|-----7---7-6-5-3-5-0-3-5/|-----7---7-6-5-|------------|

Guitar1                                 
e|-----------------|-------------------|
B|-----------------|-------------------|
G|-----------------|-------------------|X8
D|---------3-2-0-2-|------5---6---7----|
A|-----0-2---------|------3---4---5----|
E|-0-0-------------|0-0-0---0---0---0--|
PM . .               . . .   .   .   .

Guitar1                                 
e|-----------------|-------------------|
B|-----------------|-------------------|
G|-----------------|-------------------|X8
D|-----------------|------5---6---7----|
A|-----------------|------3---4---5----|
E|-0-0-0-0-0-0-0-0-|0-0-0---0---0---0--|
PM . . . . . . . .  . . .   .   .   .

Guitar 1&2
e|--------------------------|
B|--------------------------|
G|--------------------------|
D|--------------------------|X2
A|-7-5---5------------------|
E|-----7---7-6-5-3-5-0-3-5/-|

Guitar 1&2 (let notes ring) played 2 times then 1st solo starts
e|----------------|----------------|----------------|---------------|
B|----------------|----------------|----------------|---------------|
G|---------4------|---------2------|---------4------|---------2-----|
D|-2---2-----2----|-----------2----|-----------2----|-----------2---|
A|-------------2--|-5---5-------5--|-3---3-------3--|-2---2-------2-|
E|----------------|----------------|----------------|---------------|


I dont realy feel like tabing out the solo right now so mabey I will later. Tell me
what you think at eartaker@hotmail.com
Comments