Metallica - The Four Horsemen Solos Chords & Tabs

 

The Four Horsemen Solos Chords & Tabs

Metallica Chords & Tabs

Version: 1 Type: Tab 0 ratings
1 star 2 stars 3 stars 4 stars 5 stars
comments

The Four Horsemen Solos Tab

   
				METALLICA
			    ALBUM:KILL EM ALL
			 THE FOUR HORSEMEN (SOLOS)
  SOLO 1  		         
E)--------------------------------------------------------
B)--15fB-----15fB~~~--15fB(15)p12-15-15fb~~~~-------------
G)--------------------------------------------------------
D)--------------------------------------------------------
A)--------------------------------------------------------
E)--------------------------------------------------------


E)-15fb-----12-15-14fb~~------|--7------9----7---------10-
B)----------------------------|----10-7--------10-8--7----
G)---------------------9\--/9-|---------------------------
D)----------------------------|---------------------------
A)----------------------------|---------------------------
E)----------------------------|---------------------------


E)-9--7----------|----------------------------------------
B)-------7h10p7--|-7--10p7--------------------------------	
G)---------------|---------9-7-6h7-6----------------------
D)---------------|-------------------7--------------------
A)---------------|---------------------7~~~~--(7)/--------
E)---------------|----------------------------------------


E)--------------------------------------------------------
B)---12-12---12------12---12------12---12-12--------------
G)-9-11-11---11/-\11-11---11/-\11-11---11-11--------------
D)--------------------------------------------------------
A)--------------------------------------------------------
E)--------------------------------------------------------


E)--------------------------------------------------------
B)--------------------------------------------------------
G)-14fb---(14)~~~-14p11-----------------------------------
D)--------------------1412---12-14fbrp12--12~~--12-12-----
A)------------------------14-----------14-----------------
E)--------------------------------------------------------


E)--------------------------------------------------------
B)----------------------------------------12-13p12--12-13-
G)-11h12--11------11-12-11h12p11--11-12-14--------14------
D)------------14----------------14------------------------
A)--------------------------------------------------------
E)--------------------------------------------------------


E)--------------------------------20----------------------
B)-13/15-15/17-17/19-19/20-20~~~~----(20)/----------------
G)--------------------------------------------------------
D)--------------------------------------------------------
A)--------------------------------------------------------
E)--------------------------------------------------------


E)-17fb-------17fb-15--17p15-14-15p14/12-14p12------------
B)--------------------------------------------15-15-14-12-
G)--------------------------------------------------------
D)--------------------------------------------------------
A)--------------------------------------------------------
E)--------------------------------------------------------
 						   PM-----
E)--------------------------------------------------------
B)-14/12-10-12-10-8-10-8---8------------------------------
G)-----------------------9---9--7---9-7-------------------
D)--------------------------------------9-7---------------
A)------------------------------------------10-7----------
E)-----------------------------------------------10--7--7-


E)-17fb-------17fb-15-17p15-14-15p14-12-14p12-10--12p10-8-
B)--------------------------------------------------------
G)--------------------------------------------------------
D)--------------------------------------------------------
A)--------------------------------------------------------
E)--------------------------------------------------------


E)-10p8-7-8p7-5-7-5---5-----------------------------------
B)------------------8---8-7-8p7-5-7-5---------------------
G)------------------------------------7-6-----------------
D)----------------------------------------7--(7)\---------
A)--------------------------------------------------------
E)--------------------------------------------------------

PM-------------------------
E)----------------------------------------------------12----12-
B)--------------------8---8-10-8-10-12-10-12-15-12-15----15----
G)--------7---7-9-7-9---9--------------------------------------
D)-9-7-9----9--------------------------------------------------
A)-------------------------------------------------------------
E)-------------------------------------------------------------


E)-15p12121215p1212121215p121212121212121215p121212121212-
B)--------------------------------------------------------
G)--------------------------------------------------------
D)--------------------------------------------------------
A)--------------------------------------------------------
E)--------------------------------------------------------


E)-15fb-15fb-15fb-12-15p1215p1215-1212h15p12--12-15p12-12h15p12-
B)------------------------------------------15------------------
G)--------------------------------------------------------------
D)--------------------------------------------------------------
A)--------------------------------------------------------------
E)--------------------------------------------------------------



E)---12-15p12-12h15p12--12-15p12-12|-15p12----12-15p12-12h15p12-
B)-15-----------------15-----------|-------15-------------------
G)---------------------------------|----------------------------
D)---------------------------------|----------------------------
A)---------------------------------|----------------------------
E)---------------------------------|----------------------------



E)---12-15p12-15p12--12-15fb---15fb--15fb-15/-------------
B)-15--------------15-------------------------------------
G)--------------------------------------------------------
D)--------------------------------------------------------
A)--------------------------------------------------------
E)--------------------------------------------------------

Rest one bar

E)-17p12-12h15p12--12-15p12-17p12-12h15p12--12-15p121512--
B)---------------15-----------------------15--------------
G)--------------------------------------------------------
D)--------------------------------------------------------
A)--------------------------------------------------------
E)--------------------------------------------------------



E)--------------------------------------------------------
B)-15-12--------------------------------------------------
G)------14--12--------------------------------------------
D)------------14--12/-------------------------------------
A)--------------------------------------------------------
E)--------------------------------------------------------



E)--------------------------------------------------------
B)--------------------------------------------------------
G)-12h14---12p11h12p11------11----------------------------
D)----------------------14------14--21p11h12p11/9---------
A)--------------------------------------------------------
E)--------------------------------------------------------



E)--------------------------------------------------------
B)--------------------------------------------------------
G)-11p9/7~~~~~~~~~~~~~~~~~~~~~~~~~~~~~~~~~~~~~~-----------
D)--------------------------------------------------------
A)--------------------------------------------------------
E)--------------------------------------------------------

[ Tab from: http://www.guitartabs.cc/tabs/m/metallica/the_four_horsemen_solos_tab.html ]

E)--------------------------------------------------------
B)--------------------------------10-8--7h8p7-------------
G)---7---9-7--9fb(9)p7-----7-9-7--------------7-----------
D)-9-------------------9------------------------9---------
A)--------------------------------------------------------
E)--------------------------------------------------------



E)--------------------------------------------------------
B)--------------------------------------------------------
G)--------------------------------------------------------
D)-7~~~~~~~~~~~~~~~~~~~~~~~~~~~~~~~-----------------------
A)--------------------------------------------------------
E)--------------------------------------------------------


	SOLO 2
E)----------------------------------14-12-----------------
B)-------------------------14----14-----------------------
G)----------------14----13----12--------------------------
D)-------14----13----12-----------------------------------
A)----13----12--------------------------------------------
E)-12-----------------------------------------------------



E)-15p12-12-17p12-12-15p14-12-17p15-12|-15p14-12-17p15-12-
B)------------------------------------|-------------------
G)------------------------------------|-------------------
D)------------------------------------|-------------------
A)------------------------------------|-------------------
E)------------------------------------|-------------------



E)-15p14-12-17p15-12-|-15p14-12-17p15-12-15p14-12-17p15-12-
B)-------------------|-------------------------------------
G)-------------------|-------------------------------------
D)-------------------|-------------------------------------
A)-------------------|-------------------------------------
E)-------------------|-------------------------------------



E)-15p14-12-17p15-12-15p14-12-17p15-12---15fb-----15fb----
B)--------------------------------------------------------
G)--------------------------------------------------------
D)--------------------------------------------------------
A)--------------------------------------------------------
E)--------------------------------------------------------


		     1/2
E)--------------------------------------------------------
B)-15fb--15fb--15fb--15b~~~~~~~~~~~~~~~~~-----------------
G)--------------------------------------------------------
D)--------------------------------------------------------
A)--------------------------------------------------------
E)--------------------------------------------------------



E)-12------------12-----------|-12-----------12-----------	
B)---15p12--12-----15p12-12---|---15p12-12-----15p12-12---
G)----------14fb---------14fb-|---------14fb---------14fb-  Repeat
D)----------------------------|---------------------------  
A)----------------------------|---------------------------
E)----------------------------|---------------------------



E)-15p12-------------------------|-------------------------
B)------15-12--12-15p12----------|-------------------------
G)-----------14--------14-12---12|-14p12-------------------
D)--------------------------14---|------14-12--------------
A)-------------------------------|-----------14-12-10------
E)-------------------------------|---------------------12/-



E)-------------------------------------------19-19-19-----
B)--------------------------------------------------------
G)-------------------------7--9fb--9fb--9fb/--------------
D)------------7--9p7-7-9-9--------------------------------
A)---------\9-------9-------------------------------------
E)-\7--10-------------------------------------------------



E)-22191919191919192219191919191919192219191919191919-----
B)--------------------------------------------------------
G)--------------------------------------------------------
D)--------------------------------------------------------
A)--------------------------------------------------------
E)--------------------------------------------------------



E)-221919191919191922191919191919192219191919191919-22fb--
B)--------------------------------------------------------
G)--------------------------------------------------------
D)--------------------------------------------------------
A)--------------------------------------------------------
E)--------------------------------------------------------



E)-22fbr19-22p19--19---------------19-22p19---------------
B)--------------22--22-22p19--19-22--------22-19/18-19----
G)--------------------------21----------------------------
D)--------------------------------------------------------
A)--------------------------------------------------------
E)--------------------------------------------------------



E)-------------19-22p19-----------------------------------
B)-22p19--19-22--------22-19/18-19-22p19------------------
G)------21------------------------------21-19--19---------
D)-------------------------------------------21-----------
A)--------------------------------------------------------
E)--------------------------------------------------------


   A.H		    1/2
E)------------------------------12------------------------
B)-------------------------\14----------------------------
G)-21b-----21fb-----21b/----------------------------------
D)--------------------------------------------------------
A)--------------------------------------------------------
E)--------------------------------------------------------



E)-15p12-14p12--12-15p12-14p12--12-15p12-14p12--12-15p12-14p12--11-
B)------------14--------------14--------------14-------------------
G)-----------------------------------------------------------------
D)-----------------------------------------------------------------
A)-----------------------------------------------------------------
E)-----------------------------------------------------------------



E)-1519p12h15p12-19p15p12-19p15p12-19p15p12-19p15p12-19p15p12-
B)------------------------------------------------------------
G)------------------------------------------------------------
D)------------------------------------------------------------
A)------------------------------------------------------------
E)------------------------------------------------------------



E)-19p15p12-19p15p12-17p14-0-17p14-0-17p14-0-17p14-0------
B)--------------------------------------------------------
G)--------------------------------------------------------
D)--------------------------------------------------------
A)--------------------------------------------------------
E)--------------------------------------------------------



E)-17p14-0-17p14-0-17p14-0-17p14-0-22p19-0-22p19-0-22p19-0-22p19--
B)-----------------------------------------------------------------
G)-----------------------------------------------------------------
D)-----------------------------------------------------------------
A)-----------------------------------------------------------------
E)-----------------------------------------------------------------



E)-22--22fb--------22fb-------22fb--------------r(22)-----
B)--------------------------------------------------------
G)--------------------------------------------------------
D)--------------------------------------------------------
A)--------------------------------------------------------
E)--------------------------------------------------------




Comments