Metallica - The Four Horsemen Chords & Tabs

 

The Four Horsemen Chords & Tabs

Metallica Chords & Tabs

Version: 3 Type: Bass Tab 0 ratings
1 star 2 stars 3 stars 4 stars 5 stars
comments

The Four Horsemen Bass Tab

   
-------------------------------------------------------------------------------
			     THE FOUR HORSEMEN - Metallica
-------------------------------------------------------------------------------

Tabbed By : SkutterMike
e-mail: mike@skutter.cjb.net

Tuning: Standard

A lot of these riffs are repeated throughout, but it's easy to see where and
when they come in, just listen to the song.

Intro:
		*These bits are with the drums*
G|-----------|------------|
D|-----------|------------|
A|--3---5-3--|------------|	x2
E|----3------|--0*----0*--|

Verse:
		        1st  2nd  3rd endings
G|--------------------|----|----|------------|
D|--------------------|----|----|-5--3---5-3-|
A|------7-----7-----7-|-55-|-35-|--7---3-----|
E|--000---000---000---|----|----|------------|

Chorus:

(You can just hold the '7', '5', and '3' if it's easier for you, thats what I do!)

G|------------------------------------------|
D|------------------------------------------|
A|--770770770770-550550550550-330330330330--|
E|------------------------------------------|

  1st Ending	     2nd Ending
G|-------------------|-----------|
D|--------------779--|-----------|
A|--2-3-5-7-9-7------|--3---5-3--|
E|-------------------|----3------|

The Break:
			     1st end  2nd end
G|--------------------------|--------|---------|
D|--------------------------|--------|---75----|
A|--7-5-7-5-7-5-7-5-7-5-7-5-|-7-5----|-7----75-|  x2
E|--------------------------|----7/6-|---------|

Interlude:

(The first part here subsitutes the 2nd ending of the 2nd Chorus)

G|-----------------|
D|-----------------|
A|--3---5-3-7------|
E|----3----------0-|
[ Tab from: http://www.guitartabs.cc/tabs/m/metallica/the_four_horsemen_btab_ver_3.html ]
(just the guitar playing open E, play when drums come in)

G|-----|----------------------|
D|-----|----------------------|
A|--88-|-------7-----7-----88-|
E|-----|-0-000---000---000----|

G|--9-7---7-----------------9-7---7-------|-----------|
D|------9---9-8-7-5-7---5-7-----9---9-8-7-|-----------|
A|--------------------7-------------------|--3--4--5--|
E|----------------------------------------|-----------|

G|--------------------------------|
D|--------------------------------|
A|----------8-7-5-7-------3--4--5-|
E|--0-0-5-7---------0-0-0---------|

G|--9-7---7---------------9-7---7--------------|
D|------9---9-8-7-5-7---5----9---9-8-7-5-7---5-|
A|--------------------7--------------------7---|
E|---------------------------------------------|

Slow Part:

G|---------------------------------------|
D|-------------------------------2-4-2-5-|
A|--7-7-7777-5-5-5555-33-3333-22---------| Play this x2 then:
E|---------------------------------------|

G|-------------------------------------------------|
D|------------------------------------12-12-121212-|
A|--9-9-999-10-10-101010-14-14-141414--------------|
E|-------------------------------------------------|

G|-----------------------------------------------------|
D|--14-14-141414-16-16-161616-17-17-171717-2121212121--|
A|-----------------------------------------------------|   Then go back into
E|-----------------------------------------------------|   The slow riff 1


Well, thats all the parts you need, just listen to the song to see what goes
where, it's a pretty simple layout like.


| /  slide up
| \  slide down
| h  hammer-on
| p  pull-off
| ~  vibrato
| +  harmonic
| x  Mute note
===============================================================================
Comments