Metallica - The Four Horsemen Acoustic Chords & Tabs

 

The Four Horsemen Acoustic Chords & Tabs

Metallica Chords & Tabs

Version: 1 Type: Tab 2 ratings
1 star 2 stars 3 stars 4 stars 5 stars
comments

The Four Horsemen Acoustic Tab

   
This is my interpretation of this song. I cross referenced this with a few other  
incorrect tabs, and made this by listening to the song. It`s not 100%,
but it is as near as dammit. This works well played to the acoustic version
(D/L it from Kazzaa) Have fun, and make it your own. Frankyz84.

                THE FOUR HORSEMEN (Acoustic) Metallica.



    E5
|-----||----------------------|----------|----------------------|----------||
|-----||----------------------|----------|----------------------|----------||
|-----|*----------------------|----------|----------------------|----------*|
|--2--|*-(2)-0-2-0-2-0-2--2/5-|-(5)----2-|-(2)-0-2-0-2-0-2--2/5-|-(5)----2-*|
|--2--||-(2)------------------|--------2-|-(2)------------------|--------2-||
|--0--||-(0)------------------|--------0-|-(0)------------------|--------0-||

  N.C.
||---------------|---------------|---------------|-----------------|
||---------------|---------------|---------------|-----------------|
|*---------------|---------------|---------------|-----------------|
|*---------------|---------------|---------------|---------7-5-----|
||-7-5-7-5-7-5-7-|-7-5-7-5-7-5-7-|-7-5-7-5-7-5-7-|---5-7-5-0---7-5-|
||-0---0---0---0-|-0---0---0---0-|-0---0---0---0-|-7---0-------0---|

                                  C5  G5  D5  C5
|---------------|---------------|---------------||
|---------------|---------------|---------------||
|---------------|---------------|---------------*|
|---------------|---------------|-5-------7---5-*|
|-7-5-7-5-7-5-7-|-7-5-7-5-7-5-7-|-3---5---5---3-||
|-0---0---0---0-|-0---0---0---0-|-----3---------||


 VERSE.
  E5                                                                   C5  D5
||-----------------|-------------------|-------------------|-----------------|
||-----------------|-------------------|-------------------|-----------------|
|*-----------------|-------------------|-------------------|-----------------|
|*-2---------------|-(2)---------------|-(2)---------------|-(2)-------5---7-|
||-2---------------|-(2)---------------|-(2)---------------|-(2)-------3---5-|
||-0-0-0-0-0-0-0-0-|-(0)-0-0-0-3-0-0-0-|-(0)-0-0-0-0-0-0-0-|-(0)-0-0-0-------|

                                        C5  G5  D5  C5
|-----------------|-------------------|---------------||
|-----------------|-------------------|---------------||
|-----------------|-------------------|---------------*|
|-2---------------|-(2)---------------|-5-------7---5-*|
|-2---------------|-(2)---------------|-3---5---5---3-||
|-0-0-0-0-0-0-0-0-|-(0)-0-0-0-0-3-0-0-|-----3---------||

CHORUS
  E5                                D5
|----------------|----------------|----------------|----------------|
|----------------|----------------|----------------|----------------|
|-9------9-----9-|-(9)-9~~~-9-9-9-|-7------7-----7-|-(7)-7~~~-7-7-7-|
|-9------9-----9-|-(9)-9~~~-9-9-9-|-7------7-----7-|-(7)-7~~~-7-7-7-|
|-7------7-----7-|-(7)-7~~~-7-7-7-|-5------5-----5-|-(5)-5~~~-5-5-5-|
|----------------|----------------|----------------|----------------|
  V......|                          V......|    




                                                                ___
  C5                                B5                         | 3 |  
|----------------|----------------|----------------|-----------------|
|----------------|----------------|----------------|-----------------|
|-5------5-----5-|-(5)-5~~~-5-5-5-|----------------|----0---2--2-3-4-|
|-5------5-----5-|-(5)-5~~~-5-5-5-|---------0---2--|-4---------------|
|-3------3-----3-|-(3)-3~~~-3-3-3-|-2---3----------|-----------------|
|----------------|----------------|----------------|-----------------|
  V......|
  E                                 D
|-0------0-----0-|-(0)-0~~~-0-0-0-|-2------2-----2-|-2-2-2----2-2-2-|
|-0------0-----0-|-(0)-0~~~-0-0-0-|-3------3-----3-|-3-3-3----3-3-3-|
|-1------1-----1-|-(1)-1~~~-1-1-1-|-2------2-----2-|-2-2-2----2-2-2-|
|-2------2-----2-|-(2)-2~~~-2-2-2-|-0------0-----0-|-0-0-0----0-0-0-|
|-2------2-----2-|-(2)-2~~~-2-2-2-|----------------|----------------|
|-0------0-----0-|-(0)-0~~~-0-0-0-|----------------|----------------|
  V......|                          V......|
[ Tab from: http://www.guitartabs.cc/tabs/m/metallica/the_four_horsemen_acoustic_tab.html ]
|-0------0-----0-|-(0)------------|
|-1------1-----1-|-(1)------------|
|-0------0-----0-|-(0)------------|
|-2------2-----2-|-(2)------------|
|-3------3-----3-|--2---3---2-----|
|----------------|--------------3-|
  V......|

||---------------|---------------|---------------|-----------------|
||---------------|---------------|---------------|-----------------|
|*---------------|---------------|---------------|-----------------|
|*---------------|---------------|---------------|---------7-5-----|
||-7-5-7-5-7-5-7-|-7-5-7-5-7-5-7-|-7-5-7-5-7-5-7-|---5-7-5-0---7-5-|
||-0---0---0---0-|-0---0---0---0-|-0---0---0---0-|-7---0-------0---|

                                  C5  G5  D5  C5
|---------------|---------------|---------------||
|---------------|---------------|---------------||
|---------------|---------------|---------------*|
|---------------|---------------|-5-------7---5-*|
|-7-5-7-5-7-5-7-|-7-5-7-5-7-5-7-|-3---5---5---3-||
|-0---0---0---0-|-0---0---0---0-|-----3---------||

 PM....................................................................|
|-----------------|-----------------|-----------------|-----------------|
|-----------------|-----------------|-----------------|-----------------|
|-----------------|-----------------|-----------------|-----------------|
|-----------------|-----------------|-----------------|-----------------|
|-----------------|-----------------|-----------------|-----------------|
|-0-0-0-0-0-0-0-0-|-0-0-0-0-0-0-0-0-|-0-0-0-0-0-0-0-0-|-0-0-0-0-0-0-0-0-|

 PM....................................................................|
|-----------------|-----------------|-----------------|-----------------|
|-----------------|-----------------|-----------------|-----------------|
|-----------------|-----------------|-----------------|-----------------|
|-----------------|-----------------|-----------------|--------10-9---9-|
|-----------------|-----------------|-----------------|---------8-7---7-|
|-0-0-0-0-0-0-0-0-|-0-0-0-0-0-0-0-0-|-0-0-0-0-0-0-0-0-|-0-0-0-0---------|



GUITAR SOLO
 PM............................F5.E5.................................F5..|
||-----------------|-------------------|-----------------|-----------------||
||-----------------|-------------------|-----------------|-----------------||
|*-----------------|-------------------|-----------------|-----------------*|
|*-----------------|-----------10-9--9-|-----------------|-----------10-10-*|
||-----------------|------------8-7--7-|-----------------|------------8--8-||
||-0-0-0-0-0-0-0-0-|-0-0-0-0-0---------|-0-0-0-0-0-0-0-0-|-0-0-0-0-0-------||

OUTRO
|---------------|---------------|---------------|-----------------|
|---------------|---------------|---------------|-----------------|
|---------------|---------------|---------------|-----------------|
|---------------|---------------|---------------|---------7-5-----|
|-7-5-7-5-7-5-7-|-7-5-7-5-7-5-7-|-7-5-7-5-7-5-7-|---5-7-5-0---7-5-|
|-0---0---0---0-|-0---0---0---0-|-0---0---0---0-|-7---0-------0---|

                                  C5  G5  D5  C5
|---------------|---------------|---------------|-----------------||
|---------------|---------------|---------------|-----------------||
|---------------|---------------|---------------|-9~~~~~~~~~~~----||
|---------------|---------------|-5-------7---5-|-9~~~~~~~~~~~----||
|-7-5-7-5-7-5-7-|-7-5-7-5-7-5-7-|-3---5---5---3-|-7~~~~~~~~~~~----||
|-0---0---0---0-|-0---0---0---0-|-----3---------|-0~~~~~~~~~~~----||

VERSE 1
By the last breath of the fourth winds blow, Better raise your ears
The sound of hooves knocks at your door, Lock up your wife and children now.
It's time to wield the blade, For now you have got some company.

CHORUS
The Horsemen are drawing nearer, On the leather steeds they ride
They have come to take your life, On through the dead of night
With the four Horsemen ride, or choose your fate and die

VERSE 2
You have been dying since the day you were born,
You know it has all been planned, The quartet of deliverance rides
A sinner once a sinner twice, No need for confession now
Cause now you have got the fight of your life

CHORUS.....

VERSE 3
Time 
has taken its toll on you, The lines that crack your face,
Famine, 
Your body it has torn through, Withered in every place,
Pestilence
For what you have had to endure, And what you have put others through
Death
Deliverance for you for sure, There is nothing you can do

VERSE 4
So gather round young warriors now, and saddle up your steeds,
Killing scores with demon swords, Now is the death of doers of wrong
Swing the judgment hammer down, Safely inside armor blood guts and sweat

CHORUS.....
Comments