Metallica - Sweet Amber Chords & Tabs

 

Sweet Amber Chords & Tabs

Metallica Chords & Tabs

Version: 8 Type: Tab 0 ratings
1 star 2 stars 3 stars 4 stars 5 stars
comments

Sweet Amber Tab

Metallica
Sweet amber
St. anger
2003

pm..:palm mute
_:slide

intro
------------------------------------------|
------------------------------------------|
------------------------------------------|
----------------15--13--------------------|
--13_15--13_15----------------------------|
------------------------------------------|4x

-----------------------------|---------------------------------------------|
-----------------------------|---------------------------------------------|
-----------------------------|---------------------------------------------|
X-XXX-X----------------------|---------------------------------------------|
X-XXX-X----------------5-3---|---------------------------------------------|
X-XXX-X--5-3-00000-5-3-----3X|--0-000-0-000-000------------4x--------------|

verse
------------------------|-----------------------------|
------------------------|-----------------------------|
------------------------|-----------------------------|
-----------------15--13-|-----------------------------|
---13_15--13_15---------|-----------------------------|
---------------------3x-|-0-000-0-000-000-------------|2x

Chorus
----------------------------------------------------------------------------|
----------------------------------------------------------------------------|
----------------------------------------------------------------------------|
--7--------------5---3---2-----3--3-3-3--3-3--------3--3-3-3--3-3-----------|
--7--------------5---3---2-----3--3-3-3--3-3--5---3-3--3-3-3--3-3--5---3----|
--5--------------3---1---0-----1--1-1-1--1-1--------1--1-1-1--1-1-------2x--|

----------------------------------------|
----------------------------------------|
----------------------------------------|
-3--3-3-3--3-3--------------------------|
-3--3-3-3--3-3--------------------------|
-1--1-1-1--1-1--------------------------|2x

oh sweet amber
--------------------------|
--------------------------|
--------------------------|
7-----5--3-2--------------|
7-----5--3-2--------------|
5-----3--1-0--------------|

---------------------------------------------------|
---------------------------------------------------|
-------3-------------------------------------------|
-------3--------3----------------------------------|
 -0-0-01--0-0-0-3----------------------------------|
 -0-0-0---0-0-0-1----------------------3x----------|
pm..... pm.....
[ Tab from: http://www.guitartabs.cc/tabs/m/metallica/sweet_amber_tab_ver_8.html ]
pre-verse
----------------------------------------|----------------------------|
----------------------------------------|----------------------------|
----------------------------------------|----------------------------|
-X-XXX-X--------------------------------|----------------------------|
-X-XXX-X---------------5-3--------------|----------------------------|
-X-XXX-X-3-5-00000-3-5-----00000---X3---|--0-000-0-000-000-----------|2X
verse
chorus

Bridge
--------------------------------------------------------------|
--------------------------------------------------------------|
--------------------------------------------------------------|
--------------------------------------------------------------|
--13-13-13-13-14-13--16-16-16-16-17-16------------------------|
--------------------------------------------------------------|8x

oh sweet amber
--------------------------------------|
--------------------------------------|
--------------------------------------|
7-----5--3--2-------------------------|
7-----5--3--2-------------------------|
5-----3--1--0-------------------------|
bridge 4x

oh sweet amber
-------------------------------------|
-------------------------------------|
-------------------------------------|
7-----5--3--2------------------------|
7-----5--3--2------------------------|
5-----3--1--0------------------------|

-------------------------------------------|
-------------------------------------------|
--------3----------------------------------|
--------3--------3-------------------------|
--0-0-0-1-0-0-0--3-------------------------|
--0-0-0---0-0-0--1-------------------3x----|
pm.....pm......

---------|-----------------------------------------------------|
---------|-----------------------------------------------------|
---------|-----------------------------------------------------|
-X-XXX-X-|-----------------------------------------------------|
-X-XXX-X-|----------------5-3----------------------------------|
-X-XXX-X-|--3-5-00000-3-5-----00000---------------3X-----------|

--------------------------------------------------|
--------------------------------------------------|
--------------------------------------------------|
-------------0------------------------------------|
-------------0------------------------------------|
-3-1-2-3-1-2-0------------------------------------|

                                                    MANUEL LABBÉ
Comments