Metallica - Sweet Amber Chords & Tabs

 

Sweet Amber Chords & Tabs

Metallica Chords & Tabs

Version: 5 Type: Tab 0 ratings
1 star 2 stars 3 stars 4 stars 5 stars
comments

Sweet Amber Tab

Author/Artist: Metallica
Title: Sweet Amber
Album: St. Anger
Transcribed by: Trevor Cox
Email: geetarzan69@hotmail.com

Amazing song from their amazing new ablum!
Tuning is Drop D - Down 1 whole step

Clean Intro
D|-----------------------------|
A|-----------------------------|
F|-----------------------------|
C|-------------------------17b-|
G|-15/17-17-----15/17----------|
C|-0------------0--------0-----|

                       Repeat 3x
(Heavy Intro)................................
D|---------|-------------------------------|-----------------------------|
A|---------|-------------------------------|-----------------------------|
F|---------|-------------------------------|-----------------------------|
C|-X--X-X--|---5\7-7---------5\7-----------|----5\7-7--------------------|
G|-X--X-X--|---3\5-5---------3\5-----8b-8/-|----3\5-5--------------------|
C|-X--X-X--|-0---------0-000-------0-------|-0---------0-000-0-0-000-0-0-|

Verse (Kirk)
D|----------------------------------|
A|----------------------------------|
F|----------------------------------|
C|-5/7-7----------5/7---------------|
G|-3/5-5----------3/5-----8b--------|
C|--------0-000--------0------0-000-|

Verse (James)
D|-----------------------------------|
A|-----------------------------------|
F|-----------------------------------|
C|-------------------------15b-------|
G|-15/17-17--------15/17-------------|
C|-----------0-000-------0-----0-000-|

  Ohh and she holds my hand.....
D|---------------|
A|---------------|
F|-7----5---3--2-|
C|-7----5---2--2-|
G|-5----3---1--0-|
C|---------------|
[ Tab from: http://www.guitartabs.cc/tabs/m/metallica/sweet_amber_tab_ver_5.html ]
D|-----------------------------|
A|-----------------------------|
F|-----------------------------|
C|-0-xx-0-xx-0-xx-3-3-3-3--2---|
G|-0-xx-0-xx-0-xx-3-3-3-3--2---|
C|-0-xx-0-xx-0-xx-3-3-3-3--2---|

  
D|------------------|
A|------------------|
F|-7---5----4--3--2-|
C|-7---5----4--2--2-|
G|-5---3----2--1--0-|
C|------------------|
   Ohh sweet amber
          
D|-----------------------------|
A|-----------------------------|
F|-----------------------------|
C|-----------------------------|
G|-0-0-0-3--5--0-0-4\5-0-------|
C|-0-0-0-3--5--0-0-4\5-0---000-|
           How sweet are you?

Interlude Riff 1
D|---------------------------------------------------------------|
A|---------------------------------------------------------------|
F|-7--------7--------7-------10-9--------------------------------|
C|---------------------------------9-------9-------14------15-14-|
G|-5--------5--------5-------8--7--7-------7-------12------13-12-|
C|---00000----00000----00000---------00000---00000----0000-------|
   She holds the pen that spells the end...

Interlude Riff 2
D|-----------------------------------------------------------|
A|-----------------------------------------------------------|
F|-----------------------------------------------------------|
C|-----------------------------------------------------------|
G|-0-0-2-0-0-0-2-0-0-0-2-0-3--2--2-2-3-2-2-2-3-2-2-2-7--8--7-|
C|-0-0-2-0-0-0-2-0-0-0-2-0-3--2--2-2-3-2-2-2-3-2-2-2-7--8--7-|

Outro
D|---------------------|
A|---------------------|
F|---------------------|
C|-6--5--3--6--5--3--0-|
G|-6--5--3--6--5--3--0-|
C|-6--5--3--6--5--3--0-|
   Never as sweet as it seems

Thats it, I made some mistakes in my previous tab and it wasn't complete.
This makes up for it! Questions or comments just e-mail me, LATER!
Comments