Metallica - Sweet Amber Chords & Tabs

 

Sweet Amber Chords & Tabs

Metallica Chords & Tabs

Version: 3 Type: Tab 0 ratings
1 star 2 stars 3 stars 4 stars 5 stars
comments

Sweet Amber Tab

   
Artist: Metallica
Song: Sweet Amber
Album: St. Anger

Tabbed by: Ralph
E-mail: ralph_is_great@hotmail.com
This intro rules,  well the whole song rules actually. But heres the intro, enjoy


think its standard tuning

E--------------------------------------------------------------
B--------------------------------------------------------------
G--------------------------------------------------------------
D--------------------------------------------------------------
A--13----15--13-15-b18-----------13----15--13-15-b18-----------
E--------------------------------------------------------------

[ Tab from: http://www.guitartabs.cc/tabs/m/metallica/sweet_amber_tab_ver_3.html ]
E--------------------------------------------------------------
B--------------------------------------------------------------
G--------------------------------------------------------------
D--------------------------------------------------------------
A--13----15--13-15-b18-----------13---15-----------------------
E--------------------------------------------------------------


E--------------------------------------------------------------
B--------------------------------------------------------------
G--------------------------------------------------------------
D-----x-xx--xx---1-1--3----xx--1--3----------------------------
A-----x-xx--xx---1-1--3----xx--1--3--8^------------------------
E-----x-xx--xx---1-1--3----xx--1--3--8^------------------------

This is as far as i got. I'm pretty sure thats how it goes. Long live metallica.

p.s. rob tujjillo looks like a monkey :P

| /  slide up
| \  slide down
| h  hammer-on
| p  pull-off
| ~  vibrato
| +  harmonic
| x  Mute note
====================================
Comments