Metallica - Stone Cold Crazy Chords & Tabs

 

Stone Cold Crazy Chords & Tabs

Metallica Chords & Tabs

Version: 2 Type: Bass Tab 0 ratings
1 star 2 stars 3 stars 4 stars 5 stars
comments

Stone Cold Crazy Bass Tab

   
Metallica - Stone Cold Crazy
Original : Queen - Sheer Heart Attack
Tabbed By Mark Craig (Bigmc)
Email: bigmc@24stadium.freeserve.co.uk

Intro

G-----|
D-----|
A--(3)|
E-----|


Main Riff:

G---------------|--------------------|
D---------------|--------------------|
A-------------1-|---------1h3-2-3-4-5|
E--1h3-3-3-3-3--|-1h3-3-3------------|

1st Verse at 29sec

G--------------|
D--------------|
A--------------|
E--3--33-333333|

End Of Verse

G-----------------|
D-----------------|
A1h3-3-3-3-3-3-3-3|
E-----------------|

Solo1

G-------------------------|X2    G--4-2------|
D-------------------------|      D-----4-2---|
A--2-2-2-2-2-2-2-2-2-2-2-2|      A--------5-0|
E-------------------------|      E-----------|


Solo 2
[ Tab from: http://www.guitartabs.cc/tabs/m/metallica/stone_cold_crazy_btab_ver_2.html ]
G-------------------------|X2 G--4-2------|
D-------------------------|   D-----4-2---|
A--2-2-2-2-2-2-2-2-2-2-2-2|   A--------5-0|
E-------------------------|   E-----------|Order:

Intro X1
Main Riff X4
1st Verse X1
End Of Verse X1
Main Riff X2
Solo1 X1
Main Riff X2
End Of Verse X1
Solo2 X3
Main Riff X2
End Of Verse X1
Main Riff X2

Play And Enjoy!

1h3 - Hammer On
(3) - Let Note Ring



#------------Created with Taborama Tab Creator-----------------#
#------------------------------------------------------------------------------#

Title: Stone cold Crazy
Artist: Metallica
Album: Garage INC.

Tabbed by: Dan (metal_rulz2003@hotmail.com)

Tuning: Standard (E A D G  )

emailme with any correctionsG|-----------------||
D|-----------------||
A|------*----------||x5
E|------8----------|| 


G|---------------------------------||
D|---------------------------------||
A|-------1---2345------------------||x4
E|-000000-000----------------------||

i can't get the solo parts right though i think its just an e to b 
combination but i wont swear to it.
Comments