Metallica - St Anger Chords & Tabs

 

St Anger Chords & Tabs

Metallica Chords & Tabs

Version: 6 Type: Tab 0 ratings
1 star 2 stars 3 stars 4 stars 5 stars
comments

St Anger Tab

-------------------------------------------------------------------------------
			     St. Anger - MetallicA
-------------------------------------------------------------------------------

Tabbed by: André Vitória
Email: sr_andre@sapo.pt

Tuning: Tune guitar down to (from 6th to 1st string): C#,G#,C#,F#,A#,D#.






Intro:

Muted guitar
D#|----------------------------------------------------------------|
A#|----------------------------------------------------------------|
F#|----------------------------------------------------------------|
C#|----------------------------------------------------------------|3x
G#|---------------------------3-3-3--------------------------------|
C#|-0-1-2-2-1-2-1-0-2-1-0-1-2--------------------------------------|



Muted guitar
D#|----------------------------------------------------------------|
A#|----------------------------------------------------------------|
F#|----------------------------------------------------------------|
C#|----------------------------------------------------------------|
G#|----------------------------------------------------------------|
C#|-0-1-2-2-1-2-1-0-1----------------------------------------------|




When drums kick in...
Heavy riff:
D#|----------------------------------------------------------------|
A#|----------------------------------------------------------------|
F#|----------------------------------------------------------------|
C#|---------------------------3-3-3--------------------------------|nx...
G#|-0-1-2-2-1-2-1-0-2-1-0-1-2-3-3-3--------------------------------|
C#|-0-1-2-2-1-2-1-0-2-1-0-1-2--------------------------------------|


Before slow part...
D#|----------------------------------------------------------------|
A#|----------------------------------------------------------------|
F#|----------------------------------------------------------------|
C#|----------------------------------------------------------------|4x
G#|-2-1-0----------------------------------------------------------|
C#|-2-1-0----------------------------------------------------------|



Slow part,no distortion (not completely sure about this,but seems ok...)
D#|-----2----------------------------------------------------------|
A#|-----3---3-------3-----3---3------------------------------------|
F#|---2---2---2---0---0--------------------------------------------|
C#|-0--------------------------------------------------------------|4x
G#|-------------3-------1---0--------------------------------------|
C#|----------------------------------------------------------------|

[ Tab from: http://www.guitartabs.cc/tabs/m/metallica/st_anger_tab_ver_6.html ]
Keep strumming the notes,guitar 1 doubles guitar 2...
Guitar 1
D#|----------------------------------------------------------------|    
A#|----------------------------------------------------------------|	
F#|-7--------5--------15--------14---------------------------------|	
C#|-x--------x--------x---------x----------------------------------|4x	
G#|-5--------3--------13--------12---------------------------------|	
C#|----------------------------------------------------------------|
									   
Guitar 2							            
D#|----------------------------------------------------------------|
A#|----------------------------------------------------------------|
F#|----------------------------------------------------------------|
C#|-7--------5--------3---------2----------------------------------|4x
G#|-5--------3--------1---------0----------------------------------|
C#|----------------------------------------------------------------|


Pre-verse:
Guitar 1
D#|----------------------------------------------------------------|
A#|----------------------------------------------------------------|
F#|-7-----------------5------15--14--------------------------------|
C#|-x-----------------x------x---x---------------------------------|2x
G#|-5-----0-0---0-0---3------13--12--------------------------------|
C#|-0-----0-0---0-0------------------------------------------------|


Guitar 2
D#|----------------------------------------------------------------|
A#|----------------------------------------------------------------|
F#|----------------------------------------------------------------|
C#|-------------------5------3---2---------------------------------|
G#|-0-----0-0---0-0---3------1---0---------------------------------|2x
C#|-0-----0-0---0-0------------------------------------------------|


Fast part:
Guitar 1
D#|----------------------------------------------------------------|    
A#|----------------------------------------------------------------|	
F#|-7--------5--------15--------14---------------------------------|	
C#|-x--------x--------x---------x----------------------------------|4x	
G#|-5--------3--------13--------12---------------------------------|	
C#|----------------------------------------------------------------|
									   
Guitar 2							            
D#|----------------------------------------------------------------|
A#|----------------------------------------------------------------|
F#|----------------------------------------------------------------|
C#|-7--------5--------3---------2----------------------------------|4x
G#|-5--------3--------1---------0----------------------------------|
C#|----------------------------------------------------------------|



Ending fast part:
D#|----------------------------------------------------------------|
A#|----------------------------------------------------------------|
F#|----------------------------------------------------------------|
C#|----------------------------------------------------------------|
G#|-0-0---0-0---0-0---0-0------------------------------------------|
C#|-0-0---0-0---0-0---0-0------------------------------------------|



D#|----------------------------------------------------------------|
A#|----------------------------------------------------------------|
F#|----------------------------------------------------------------|
C#|---------------------------3-3-3--------------------------------|
G#|-0-------------------------3-3-3--------------------------------|
C#|-0-1-2-2-1-2-1-0-2-1-0-1-2--------------------------------------|


The rest of the song is already tabbed here,it just keeps on repeating the riffs...



Comments