Metallica - St Anger Chords & Tabs

 

St Anger Chords & Tabs

Metallica Chords & Tabs

Version: 3 Type: Tab 1 rating
1 star 2 stars 3 stars 4 stars 5 stars
comments

St Anger Tab

Tabbed by twisted_penguin
Subject: Metallica - St. Anger


 Main intro riff                                                                        
D||----------------------------------|
A||----------------------------------|
F||----------------------------------|
C||------------------------------3-3-|
G||----------3-2-0-3-2-0---------3-3-|
C||--0-2-3-0-3-2-0-3-2-0-0-2-3-4-----|

 Played at various times during intro
 and just before quiter bit
|----------------------------------|
|----------------------------------|
|----------------------------------|
|----------------------------------|
|----------3-2-0-3-2-0-3-2-0-3-2-0-|
|--0-2-3-0-3-2-0-3-2-0-3-2-0-3-2-0-|

 Clean guitar                                                     
|------------------------|-----------------------------|
|------------------------|-----------------------------|
|------------------------|-----------------------------|
|--12------16----12------|----------12-------12-----12-|
|------------------------|------10---------------------|
|------------------------|--10----------8--8-----7-----|

                                                                             
||--------------------------|-----------------------------||
||--------------------------|-----------------------------||
||--------------------------|-----------------------------||
||--12--------10------------|----------12--------12----12-||  X 3
||--------12--------12------|------10---------------------||
||--------------------------|--10----------8--8-----7-----||

 Gets heavy again..                                                                        
|-----|-----------------------|		|-----|
|-----|-----------------------|		|-----|
|-----|------------10----9----|		|-----|
|-----|------------x-----x----|	X4	|-----|
|--0--|--10--------8-----7----|		|--0--|
|--0--|--10--------8-----7----|		|--0--|

[ Tab from: http://www.guitartabs.cc/tabs/m/metallica/st_anger_tab_ver_3.html ]
 Interlude
|------------------------|---------------------|
|------------------------|---------------------|
|------------------------|--10----9------------|
|------------------------|--x-----x------------|
|--0-0---0-0---10--------|--8-----7------------|
|--0-0---0-0---10--------|--8-----7------------|
                                                 
                                   
|----------------------------------|
|----------------------------------|
|----------------------------------|
|--7-7-7-7-7-7-7-7-7-7-7-7-7-7-7-7-|
|--5-5-5-5-5-5-5-5-5-5-5-5-5-5-5-5-|
|--0-0-0-0-0-0-0-0-0-0-0-0-0-0-0-0-|

                                                            
|----------------------------------------------|
|----------------------------------------------|
|--------------------------10-10-10-10-9-9-9-9-|
|--------------------------x--x--x--x--x-x-x-x-|
|--10-10-10-10-10-10-10-10-8--8--8--8--7-7-7-7-|
|--10-10-10-10-10-10-10-10-8--8--8--8--7-7-7-7-|
 


Kirks:                          
---------------------------------------------------------------------------------|
---------------------------------13-13-13-13-13-13-13-13-11-11-11-11-10-10-10-10-|
-7-7-7-7-7-7-7-7-7-7-7-7-7-7-7-7-12-12-12-12-12-12-12-12-10-10-10-10-9--9--9--9--|
-7-7-7-7-7-7-7-7-7-7-7-7-7-7-7-7-------------------------------------------------|
---------------------------------------------------------------------------------|
---------------------------------------------------------------------------------|
                                                   

 This part takes you back to the beginning of the loop                                                              
|----|--------------------------|----------------------------------||
|----|--------------------------|----------------------------------||
|----|--------------------------|----------------------------------||
|----|--------------------------|------------------------------3-3-||
|-12-|--0-0---0-0---0-0---0-0---|----------3-2-0-3-2-0-------4-3-3-||
|-12-|--0-0---0-0---0-0---0-0---|--0-2-3-0-3-2-0-3-2-0-0-2-3-4-----||


Comments