Metallica - St Anger Chords & Tabs

 

St Anger Chords & Tabs

Metallica Chords & Tabs

Version: 19 Type: Tab 0 ratings
1 star 2 stars 3 stars 4 stars 5 stars
comments

St Anger Tab

Tablatura de NICO M: (nicokbbl@hotmial.com)

Artista: Metallica
Cancion: St Anger
Album: St Anger (2003)


Intro
1|---------------------------------------------------------|
2|---------------------------------------------------------|
3|---------------------------------------------------------|x2
4|---------------------------------------------------------|
5|----------------------5-5-5------------------------------|
6|--3-3-4-3-4-3-3-4-3-3------------------------------------|


1|---------------------------------------------------------|
2|---------------------------------------------------------|
3|----------------------7-7-7------------------------------|x6
4|--5-5-6-5-6-5-5-6-5-5-7-7-7------------------------------|
5|--5-5-6-5-6-5-5-6-5-5-5-5-5------------------------------|
6|--3-3-4-3-4-3-3-4-3-3------------------------------------|


1|---------------------------------------------------------|
2|---------------------------------------------------------|
3|------------------7-7------------------------------------|x7
4|--5-5-5-5-5-5-5-5-7-7------------------------------------|
5|--5-5-5-5-5-5-5-5-5-5------------------------------------|
6|--3-3-3-3-3-3-3-3----------------------------------------|


1|---------------------------------------------------------|
2|---------------------------------------------------------|
3|---------------------------------------------------------|
4|--5-0x-5-0x-5-0x-----------------------------------------|
5|--5-0x-5-0x-5-0x-----------------------------------------|
6|--3-0x-3-0x-3-0x-----------------------------------------|


  St. Anger round my neck
  St. Anger round my neck
  He never gets respect
  St. Anger round my neck


1|---------------------------------------------------------|
2|---------------------------------------------------------|
3|--7--5---------------------------------------------------|x4
4|--7--5--8--6---------------------------------------------|
5|--5--3--8--6---------------------------------------------|
6|--------6--4---------------------------------------------|

   ˇYou flush it out! ˇYou flush it out!
   St. Anger round my neck
   ˇYou flush it out! ˇYou flush it out!
   He never gets respect
   ˇYou flush it out! ˇYou flush it out!
   St. Anger round my neck
   ˇYou flush it out! ˇYou flush it out!
   He never gets respect


1|---------------------------------------------------------|
2|---------------------------------------------------------|
3|---------------------------------------------------------|
4|-7-5--5-0x-5-0x-5-0x--7-5--------------------------------|
5|-7-5--5-0x-5-0x-5-0x--7-5--------------------------------|
6|-5-3--3-0x-3-0x-3-0x--5-3--------------------------------|


(Coro) (Chorus)
1|---------------------------------------------------------|
2|---------------------------------------------------------|
3|--7-------------3----------------------------------------|x7
4|--7-------------3---8--6---------------------------------|
5|--5-------------5---8--6---------------------------------|
6|--------------------6--4---------------------------------|


  Fuck it all and no regrets
  I hit the lights on these dark sets
  I need a voice to let myself
  To let myself go free
  Fuck it all and fuck it no regrets
  I hit the lights on these dark sets
  Medallion noose I hang myself
  St. Anger round my neck


  I feel my world shake
  like an earthquake
  Hard to see clear
  Is it me
  is it fear?

  I'm madly in anger with you (x2)

1|---------------------------------------------------------|
2|---------------------------------------------------------|
3|-----------------------------------------7-7-7-----------|
4|--7---5-5--5-5--5-5--5-5-----5-5-6-5-6-5-7-7-7-----------|
5|--7---5-5--5-5--5-5--5-5-----5-5-6-5-6-5-5-5-5-----------|
6|--5---3-3--3-3--3-3--3-3-----3-3-4-3-4-3-----------------|


1|---------------------------------------------------------|
2|---------------------------------------------------------|
3|------------------7-7------------------------------------|x7
4|--5-5-5-5-5-5-5-5-7-7------------------------------------|
5|--5-5-5-5-5-5-5-5-5-5------------------------------------|
6|--3-3-3-3-3-3-3-3----------------------------------------|


1|---------------------------------------------------------|
2|---------------------------------------------------------|
3|---------------------------------------------------------|
4|--5-0x-5-0x-5-0x-----------------------------------------|
5|--5-0x-5-0x-5-0x-----------------------------------------|
6|--3-0x-3-0x-3-0x-----------------------------------------|

[ Tab from: http://www.guitartabs.cc/tabs/m/metallica/st_anger_tab_ver_19.html ]
  St. Anger round my neck
  St. Anger round my neck
  He never gets respect
  St. Anger round my neck

1|---------------------------------------------------------|
2|---------------------------------------------------------|
3|--7--5---------------------------------------------------|x4
4|--7--5--8--6---------------------------------------------|
5|--5--3--8--6---------------------------------------------|
6|--------6--4---------------------------------------------|

   ˇYou flush it out! ˇYou flush it out!
   St. Anger round my neck
   ˇYou flush it out! ˇYou flush it out!
   He never gets respect
   ˇYou flush it out! ˇYou flush it out!
   St. Anger round my neck
   ˇYou flush it out! ˇYou flush it out!
   He never gets respect



1|---------------------------------------------------------|
2|---------------------------------------------------------|
3|---------------------------------------------------------|
4|-7-5--5-0x-5-0x-5-0x--7-5--------------------------------|
5|-7-5--5-0x-5-0x-5-0x--7-5--------------------------------|
6|-5-3--3-0x-3-0x-3-0x--5-3--------------------------------|


(Coro) (Chorus)
1|---------------------------------------------------------|
2|---------------------------------------------------------|
3|--7-------------3----------------------------------------|x8
4|--7-------------3---8--6---------------------------------|
5|--5-------------5---8--6---------------------------------|
6|--------------------6--4---------------------------------|


  Fuck it all and no regrets
  I hit the lights on these dark sets
  I need a voice to let myself
  To let myself go free
  Fuck it all and fuck it no regrets
  I hit the lights on these dark sets
  Medallion noose I hang myself
  St. Anger round my neck


  I feel my world shake
  like an earthquake
  Hard to see clear
  Is it me
  is it fear?

  I'm madly in anger with you (x4)


1|---------------------------------------------------------|
2|---------------------------------------------------------|
3|-----------------------------------------7-7-7-----------|
4|--7---5-5--5-5--5-5--5-5-----5-5-6-5-6-5-7-7-7-----------|
5|--7---5-5--5-5--5-5--5-5-----5-5-6-5-6-5-5-5-5-----------|
6|--5---3-3--3-3--3-3--3-3-----3-3-4-3-4-3-----------------|



1|---------------------------------------------------------|
2|---------------------------------------------------------|
3|----------------------7-7-7------------------------------|x10
4|--5-5-6-5-6-5-5-6-5-5-7-7-7------------------------------|
5|--5-5-6-5-6-5-5-6-5-5-5-5-5------------------------------|
6|--3-3-4-3-4-3-3-4-3-3------------------------------------|


I want my anger to be healthy
I want my anger just for me
I need my anger not to control
I want my anger to be me

I need set my anger free
I need to set my anger free
Set it free!


1|---------------------------------------------------------|
2|---------------------------------------------------------|
3|------------------7-7------------------------------------|x3
4|--5-5-5-5-5-5-5-5-7-7------------------------------------|
5|--5-5-5-5-5-5-5-5-5-5------------------------------------|
6|--3-3-3-3-3-3-3-3----------------------------------------|


1|---------------------------------------------------------|
2|---------------------------------------------------------|
3|---------------------------------------------------------|
4|--5-0x-5-0x-5-0x-----------------------------------------|
5|--5-0x-5-0x-5-0x-----------------------------------------|
6|--3-0x-3-0x-3-0x-----------------------------------------|


(Coro) (Chorus)
1|---------------------------------------------------------|
2|---------------------------------------------------------|
3|--7-------------3----------------------------------------|x8
4|--7-------------3---8--6---------------------------------|
5|--5-------------5---8--6---------------------------------|
6|--------------------6--4---------------------------------|


  Fuck it all and no regrets
  I hit the lights on these dark sets
  I need a voice to let myself
  To let myself go free
  Fuck it all and fuck it no regrets
  I hit the lights on these dark sets
  Medallion noose I hang myself
  St. Anger round my neck


  I feel my world shake
  like an earthquake
  Hard to see clear
  Is it me
  is it fear?

  I'm madly in anger with you (x4)



1|---------------------------------------------------------|
2|---------------------------------------------------------|
3|-----------------------------------------7-7-7-----------|
4|--7---5-5--5-5--5-5--5-5-----5-5-6-5-6-5-7-7-7--3--------|
5|--7---5-5--5-5--5-5--5-5-----5-5-6-5-6-5-5-5-5--3--------|
6|--5---3-3--3-3--3-3--3-3-----3-3-4-3-4-3--------1--------|
Comments