Metallica - St Anger Chords & Tabs

 

St Anger Chords & Tabs

Metallica Chords & Tabs

Version: 15 Type: Tab 0 ratings
1 star 2 stars 3 stars 4 stars 5 stars
comments

St Anger Tab

   
ST. ANGER
 Metallica
(From the 2003 Album ST. ANGER)

Words and Music by Metallica
Arranged by Metallica

Transcribed by Jibesh (jibesh@hotmail.com)


Tune all guitars down to Dropped C [C A C F A D]
Gtr I (C G C F A D) - 'Kirk-distortion guitar'
Gtr II (C G C F A D) - 'James-overdriven guitar'
Gtr III (C G C F A D) - 'Kirk electric guitar -clean'
Gtr IV (C G C F A D) - 'James -electric guitar-clean'


 
 S   - shift slide
 PM  - palm muting
 =   - hold bend; also acts as connecting device for hammers/pulls
 x   - on rhythm slash represents muted slash
 ()  - still ringing the previous note
||R  - repeat start
R||  - repeat end

********************************************************************************************
********************************************************************************************
**  Note:- when you see this " R " at the bar begining and bar ending ,this mean that it  ** 
**  should be repeated the given times writen at top of the ending bar                    **
********************************************************************************************
********************************************************************************************


 Intro
  

  Gtr II
         PM----------|   PM|     PM----|       PM
                                                   3x
|----------||------------------|-------------------||
|----------||R-----------------|------------------R||
|----------||------------------|-------------------||
|----------||------------------|-------------------||
|----------||R-----------------|---------3-3-3----R||
|--------0-||--1-2-2-1-2-1-0-2-|-1-0-1-2-------0---||


  
                                F#F5  F#5 F5      G5

                         PM----|   PM|     PM----|       PM
  Pm------|   PM                                                                3x
|------------------|---------|----------||------------------|-------------------||
|------------------|---------|----------||R-----------------|------------------R||
|------------------|---------|----------||------------------|-------------------||
|------------------|---------|----------||------------------|---------3-3-3-----||
|------------------|---------|--------0-||R-1-2-2-1-2-1-0-2-|-1-0-1-2-3-3-3----R||
|--1-2-2-1-2-1-0-2-|-1-0-----|--------0-||--1-2-2-1-2-1-0-2-|-1-0-1-2-------0---||


                    F5  F#F5  F#5 F5      G5
             
  PM----|   PM|                     PM
|-----------------|-------------|-----------------|
|-----------------|-------------|-----------------|
|-----------------|-------------|-----------------|
|-----------------|-------------|---------3-3-3---|
|-1-2-2-1-2-1-0-2-|-1-0-2-1-0-2-|---------3-3-3---|
|-1-2-2-1-2-1-0-2-|-1-0-2-1-0-2-|-1-0-0-1-------0-|
|
| Gtr I
|-----------------|-------------|-----------------|
|-----------------|-------------|-----------------|
|-----------------|-------------|-----------------|
|---------2S1---2S|=1---2S1---2S|=1---------------|
|---------2S1---2S|=1---2S1---2S|=1---------------|
|---------2S1-0-2S|=1-0-2-1-0-2S|=1-0-------------|


            F#F5  F#5 F5    F5G5
    PM----|   PM|     PM----|       PM---
                                       3x
||------------------|------------------||
||R-----------------|-----------------R||
||------------------|------------------||
||------------------|---------3-3-3----||
||R-----------------|---------3-3-3---R||
||--1-2-2-1-2-1-0-2-|-1-0-1-2-------0--||
|
|               PM      PM
|                                      3x
||------------------|------------------||
||R-----------------|-----------------R||
||------------------|------------------||
||----------2S1---2S|=1----------------||
||R---------2S1---2S|=1---------------R||
||----------2S1-0-2S|=1-0--------------||


          F#F5  F#5 F5  F#F5  F#5 F5            E5
                   
 PM-----|     PM      PM    PM      PM
|-----------------|-------------|------------------|
|-----------------|-------------|------------------|
|-----------------|-------------|------------------|
|-----------------|-------------|---------3-3-3-2--|
|-----------------|-------------|---------3-3-3-2--|
|-1-2-2-1-2-1-0-2-|-1-0-2-1-0-2-|-1-0-1-2-------0--|
|
|             PM      PM    PM      PM
|-----------------|-------------|------------------|
|-----------------|-------------|------------------|
|-----------------|-------------|------------------|
|---------2S1---2S|=1---2S1---2S|=1----------------|
|---------2S1---2S|=1---2S1---2S|=1----------------|
|---------2S1-0-2S|=1-0-2S1-0-2S|=1-0--------------|


    F5F#5     F5E5F#5 F5E5  F5G5        F5F#5 F5F#F5E5F#5
    Gtrs I, II
||------------------|-----------------|-----------------|
||R-----------------|-----------------|-----------------|
||------------------|-----------------|-----------------|
||------------------|---------3-3-3---|-----------------|
||R-1-2-2-1-2S1-0-2S|=1-0-1-2-3-3-3-0-|-1-2-2-1-2S1-0-2S|
||--1-2-2-1-2S1-0-2S|=1-0-1-2-3-3-3-0-|-1-2-2-1-2S1-0-2S|


  F5E5  F5G5    E5    F#F5  F#F5  F#F5  F#F5
                     
                          PM    PM    PM    PM
                   4x
|------------------||-------------------------||
|-----------------R||-------------------------||
|------------------||-------------------------||
|---------3-3-3----||-2S1---2S1---2S1---2S1---||
|-1-0-1-2-3-3-3-0-R||-2S1---2S1---2S1---2S1---||
|-1-0-1-2-3-3-3-0--||-2S1-0-2S1-0-2S1-0-2S1-0-||


   Verse
    Em                        D           C
   
    Gtr IV
||---------2--|-(2)---------|-----------|----------------|
||R-3---------|-------------|-1----3----|-(3)-1-3----3---|
||------------|-------------|-----------|----------------|
||--0------0--|-(0)---------|-----------|----------------|
||R-----------|-------------|-----------|----------------|
||------------|-------------|-----------|----------------|
|
|   Gtr III
||------------|-------------|-----------|----------------|
||R-3------3--|-(3)--3------|-1----3----|-(3)-1-3----3---|
||---------5--|-(5)--2------|-----------|----------------|
||------------|-------------|-----------|----------------|
||R-----------|-------------|-----------|----------------|
||------------|-------------|-----------|----------------|


  Em                              D           C
|-------------|-----------------|-----------|----------------||
|--3-------3--|-(3)--3----(3)---|-1----3----|-(3)-1-3----3--R||
|----------5--|-(5)--2----(2)-2-|-----------|----------------||
|-------------|-----------------|-----------|----------------||
|-------------|-----------------|-----------|---------------R||
|-------------|-----------------|-----------|----------------||
|
|-------------|-----------------|-----------|----------------||
|-(3)------3--|-(3)--3----(3)---|-1----3----|-(3)-1-3----3--R||
|----------5--|-(5)--2----(2)-2-|-----------|----------------||
|-------------|-----------------|-----------|----------------||
|-------------|-----------------|-----------|---------------R||
|-------------|-----------------|-----------|----------------||


   Pre-Chorus
    E5/B
    Gtr I
||----------------------------------|-----------------------------------|
||R---------------------------------|-----------------------------------|
||--7-7-7-7-7-7-7-7-7-7-7-7-7-7-7-7-|--7--7-7-7-7-7-7-7-7-7-7-7-7-7-7-7-|
||--x-x-x-x-x-x-x-x-x-x-x-x-x-x-x-x-|--x--x-x-x-x-x-x-x-x-x-x-x-x-x-x-x-|
||R-5-5-5-5-5-5-5-5-5-5-5-5-5-5-5-5-|--5--5-5-5-5-5-5-5-5-5-5-5-5-5-5-5-|
||----------------------------------|-----------------------------------|
|
|   Gtr II
||----------------------------------|-----------------------------------|
||R---------------------------------|-----------------------------------|
||----------------------------------|-----------------------------------|
||--0-------------------------------|-(0)-------------------------------|
||R-0-------------------------------|-(0)-------------------------------|
||--0-------------------------------|-(0)-------------------------------|


  D                                 C                       B
                                                                                        4x
|---------------------------------|-----------------------------------------------------||
|---------------------------------|-11-11-11-11-11-11-10-10-10-10-10-10-10-10-10-10----R||
|-5-5-5-5-5-5-5-5-5-5-5-5-5-5-5-5-|--x--x--x--x--x--x--x--x--x--x--x--x--x--x--x--x-----||
|-x-x-x-x-x-x-x-x-x-x-x-x-x-x-x-x-|--8--8--8--8--8--8--7--7--7--7--7--7--7--7--7--7-----||
|-3-3-3-3-3-3-3-3-3-3-3-3-3-3-3-3-|----------------------------------------------------R||
|---------------------------------|-----------------------------------------------------||
|
|                                                                                       4x
|---------------------------------|-----------------------------------------------------||
|---------------------------------|----------------------------------------------------R||
|-5-------------------------------|--3-----------------------2--------------------------||
|-5-------------------------------|--2-----------------------2--------------------------||
|-3-------------------------------|--1-----------------------0-------------------------R||
|---------------------------------|-----------------------------------------------------||


    E5                       D5         C   B5
               PM|   PM|
||-----------|-------------|----------|------------||
||R----------|-------------|----------|-----------R||
||-----------|-------------|-5--------|-3----2-----||
||--0--------|-0-0---0-0---|-5--------|-2----2-----||
||R-0--------|-0-0---0-0---|-3--------|-1----0----R||
||--0--------|-0-0---0-0---|----------|------------||


   Chorus
    E5         E5         D5         C    B5
    Gtrs I, II
                                                8x
||-----------|----------|----------|------------||
||R----------|----------|----------|-----------R||
||-----------|----------|-5--------|-3----2-----||
||--0--------|-0--------|-5--------|-2----2-----||
||R-0--------|-0--------|-3--------|-1----0----R||
||--0--------|-0--------|----------|------------||


  E5         E5                          F F#5 F5F#F5  F#5 F5    F5G5/D  E5
  Gtr II
             PM|   PM|     PM|   PM|     PM----|     PM
|----------|-------------|-------------|-----------------|-----------------|
|----------|-------------|-------------|-----------------|-----------------|
|----------|-------------|-------------|-----------------|-----------------|
|-0--------|-0-0---0-0---|-0-0---0-0---|-----------------|---------3-3-3-0-|
|-0--------|-0-0---0-0---|-0-0---0-0---|---2-2-1-2S1---2S|=1-----2-3-3-3-0-|
|-0--------|-0-0---0-0---|-0-0---0-0---|-1-2-2-1-2S1-0-2S|=1-0-1-2-------0-|
|
| Gtr I
|            PM|   PM|     PM|   PM|
|----------|-------------|-------------|-----------------|-----------------|
|----------|-------------|-------------|-----------------|-----------------|
|----------|-------------|-------------|-----------------|-----------------|
|-0--------|-0-0---0-0---|-0-0---0-0---|-----------------|-----------------|
|-0--------|-0-0---0-0---|-0-0---0-0---|-----------------|---------------0-|
|-0--------|-0-0---0-0---|-0-0---0-0---|-----------------|---------------0-|


    F5F#5 F5F#F5  F#5 F5    F5G5    E   F5F#F#F5F#F5  F#5
    Gtrs I, II
||------------------|-----------------|-----------------|
||R-----------------|-----------------|-----------------|
||------------------|-----------------|-----------------|
||------------------|---------3-3-3---|-----------------|
||R-1-2-2-1-2S1-0-2S|=1-0-1-2-3-3-3-0-|-1-2-2-1-2S1-0-2S|
||--1-2-2-1-2S1-0-2S|=1-0-1-2-3-3-3-0-|-1-2-2-1-2S1-0-2S|


  F5    F5G5          F#F5  F#F5  F#F5  F#F5
                     
                          PM    PM    PM    PM
                   7x
|------------------||-------------------------||
|-----------------R||-------------------------||
|------------------||-------------------------||
|---------3-3-3----||-2S1---2S1---2S1---2S1---||
|-1-0-1-2-3-3-3-0-R||-2S1---2S1---2S1---2S1---||
|-1-0-1-2-3-3-3-0--||-2S1-0-2S1-0-2S1-0-2S1-0-||

[ Tab from: http://www.guitartabs.cc/tabs/m/metallica/st_anger_tab_ver_15.html ]
   Verse
    Em                        D           C
   
    Gtr IV
||--0------4--|-(4)---------|-----------|----------------|
||R-----------|-------------|-3----5----|-(5)-3-5----5---|
||------------|-------------|-----------|----------------|
||--2------2--|-(2)---------|-----------|----------------|
||R-----------|-------------|-----------|----------------|
||------------|-------------|-----------|----------------|
|
|   Gtr III
||---------0--|-(0)---------|-----------|----------------|
||R-5------3--|-(3)--5------|-3----5----|-(5)-3-5----5---|
||------------|------4------|-----------|----------------|
||------------|-------------|-----------|----------------|
||R-----------|-------------|-----------|----------------|
||------------|-------------|-----------|----------------|


  Em                            D           C
|--------0--|-(0)-------------|-----------|----------------||
|-5------3--|-(3)--5----(5)---|-3----5----|-(5)-3-5----5--R||
|-----------|------4----(4)-4-|-----------|----------------||
|-----------|-----------------|-----------|----------------||
|-----------|-----------------|-----------|---------------R||
|-----------|-----------------|-----------|----------------||
|
|--------0--|-(0)-------------|-----------|----------------||
|-5------3--|-(3)--5----(5)---|-3----5----|-(5)-3-5----5--R||
|-----------|------4----(4)-4-|-----------|----------------||
|-----------|-----------------|-----------|----------------||
|-----------|-----------------|-----------|---------------R||
|-----------|-----------------|-----------|----------------||


   Pre-ChRrus
    Em
    Gtr II
||----------------------------------|-----------------------------------|
||R---------------------------------|-----------------------------------|
||--7-7-7-7-7-7-7-7-7-7-7-7-7-7-7-7-|--7--7-7-7-7-7-7-7-7-7-7-7-7-7-7-7-|
||--x-x-x-x-x-x-x-x-x-x-x-x-x-x-x-x-|--x--x-x-x-x-x-x-x-x-x-x-x-x-x-x-x-|
||R-5-5-5-5-5-5-5-5-5-5-5-5-5-5-5-5-|--5--5-5-5-5-5-5-5-5-5-5-5-5-5-5-5-|
||----------------------------------|-----------------------------------|
|
|   Gtr I
||----------------------------------|-----------------------------------|
||R---------------------------------|-----------------------------------|
||----------------------------------|-----------------------------------|
||--0-------------------------------|-(0)-------------------------------|
||R-0-------------------------------|-(0)-------------------------------|
||--0-------------------------------|-(0)-------------------------------|


  D                                 C           B
                                                                                        4x
|---------------------------------|-----------------------------------------------------||
|---------------------------------|-11-11-11-11-11-11-10-10-10-10-10-10-10-10-10-10----R||
|-5-5-5-5-5-5-5-5-5-5-5-5-5-5-5-5-|--x--x--x--x--x--x--x--x--x--x--x--x--x--x--x--x-----||
|-x-x-x-x-x-x-x-x-x-x-x-x-x-x-x-x-|--8--8--8--8--8--8--7--7--7--7--7--7--7--7--7--7-----||
|-3-3-3-3-3-3-3-3-3-3-3-3-3-3-3-3-|----------------------------------------------------R||
|---------------------------------|-----------------------------------------------------||
|
|                                                                                       4x
|---------------------------------|-----------------------------------------------------||
|---------------------------------|----------------------------------------------------R||
|-5-------------------------------|--3-----------------------2--------------------------||
|-5-------------------------------|--2-----------------------2--------------------------||
|-3-------------------------------|--1-----------------------0-------------------------R||
|---------------------------------|-----------------------------------------------------||


    E5                       D5         C    B5
               PM|   PM|
||-----------|-------------|----------|------------||
||R----------|-------------|----------|-----------R||
||-----------|-------------|-5--------|-3----2-----||
||--0--------|-0-0---0-0---|-5--------|-2----2-----||
||R-0--------|-0-0---0-0---|-3--------|-1----0----R||
||--0--------|-0-0---0-0---|----------|------------||
|
|              PM|   PM|
||-----------|-------------|----------|------------||
||R----------|-------------|----------|-----------R||
||-----------|-------------|-5--------|-3----2-----||
||--0--------|-0-0---0-0---|-5--------|-2----2-----||
||R-0--------|-0-0---0-0---|-3--------|-1----0----R||
||--0--------|-0-0---0-0---|----------|------------||


   ChRrus
    Em                    D          C      B
    Gtrs I, II
                                                 8x
||-----------|----------|----------|-------------||
||R----------|----------|----------|------------R||
||-----------|----------|-5--------|-3----2------||
||--0--------|-0--------|-5--------|-2----2------||
||R-0--------|-0--------|-3--------|-1----0-----R||
||--0--------|-0--------|----------|-------------||


  E5         E5
                          9/8               4/4
  Gtr II
             PM|   PM|     PM|   PM|   PM----------|     PM
|----------|-------------|---------------||------------------|
|----------|-------------|---------------||R-----------------|
|----------|-------------|---------------||------------------|
|-0--------|-0-0---0-0---|-0-0---0-0-----||------------------|
|-0--------|-0-0---0-0---|-0-0---0-0-----||R-----------------|
|-0--------|-0-0---0-0---|-0-0---0-0---0-||--1-2-2-1-2-1-0-2-|
|
| Gtr I
|            PM|   PM|     PM|   PM|
|----------|-------------|---------------||------------------|
|----------|-------------|---------------||R-----------------|
|----------|-------------|---------------||------------------|
|-0--------|-0-0---0-0---|-0-0---0-0-----||------------------|
|-0--------|-0-0---0-0---|-0-0---0-0-----||R-----------------|
|-0--------|-0-0---0-0---|-0-0---0-0-----||------------------|


                          F5F#5 F5F#F5  F#5 F5      G5
  PM----|       PM--------------|     PM      PM--|       PM
                   4x                                        3x
|------------------||-||------------------|------------------||
|-----------------R||-||R-----------------|-----------------R||
|------------------||-||------------------|------------------||
|------------------||-||----------2S1---2S|=1-------3-3-3----||
|---------3-3-3---R||-||R-1-2-2-1-2S1---2S|=1-----2-3-3-3---R||
|-1-0-1-2-------0--||-||--1-2-2-1-2S1-0-2S|=1-0-1-2-------0--||
|
|                         PM----|     PM      PM--|       PM
|                  4x                                        3x
|------------------||-||------------------|------------------||
|-----------------R||-||R-----------------|-----------------R||
|------------------||-||------------------|------------------||
|------------------||-||----------2S1---2S|=1-------3-3-3----||
|-----------------R||-||R-1-2-2-1-2S1---2S|=1-----2-3-3-3---R||
|------------------||-||--1-2-2-1-2S1-0-2S|=1-0-1-2-3-3-3-0--||


  F5F#5 F5F#F5  F#5 F5  F#F5  F#5 F5      G5
                   
  Gtrs I, II
  PM----|     PM      PM    PM      PM
|-----------------|-------------|-----------------|
|-----------------|-------------|-----------------|
|-----------------|-------------|-----------------|
|---------2S1---2S|=1---2S1---2S|=1-------3-3-3---|
|-1-2-2-1-2S1---2S|=1---2S1---2S|=1-------3-3-3---|
|-1-2-2-1-2S1-0-2S|=1-0-2S1-0-2S|=1-0-1-2-3-3-3-0-|


   Interlude
    F5F#5 F5F#F5  F#5 F5      G5
    Gtr II
    PM----|     PM      PM--|       PM---
                                       3x
||------------------|------------------||
||R-----------------|-----------------R||
||------------------|------------------||
||----------2S1---2S|=1-------3-3-3----||
||R-1-2-2-1-2S1---2S|=1-----2-3-3-3---R||
||--1-2-2-1-2S1-0-2S|=1-0-1-2-------0--||
|
|   Gtr I
|   PM----|     PM      PM--|       PM---
|                                      3x
||------------------|------------------||
||R-----------------|-----------------R||
||------------------|------------------||
||----------2S1---2S|=1-------3-3-3----||
||R-1-2-2-1-2S1---2S|=1-----2-3-3-3---R||
||--1-2-2-1-2S1-0-2S|=1-0-1-2-------0--||


  F5F#5 F5F#F5  F#5 F5  F#F5  F#5 F5            E5
                   
 PM-----|     PM      PM    PM      PM
|-----------------|-------------|------------------|
|-----------------|-------------|------------------|
|-----------------|-------------|------------------|
|-----------------|-------------|---------------0--|
|-1-2-2-1-2S1---2S|=1---2S1---2S|=1-----2-3-3-3-0--|
|-1-2-2-1-2S1-0-2S|=1-0-2S1-0-2S|=1-0-1-2-------0--|
|
|PM-----|     PM      PM    PM
|-----------------|-------------|------------------|
|-----------------|-------------|------------------|
|-----------------|-------------|------------------|
|-----------------|-------------|---------------0--|
|-1-2-2-1-2S1---2S|=1---2S1---2S|=1-------------0--|
|-1-2-2-1-2S1-0-2S|=1-0-2S1-0-2S|=1-------------0--|


    Gtrs I, II
||------------------|-----------------|-----------------|
||R-----------------|-----------------|-----------------|
||------------------|-----------------|-----------------|
||------------------|---------5-5-5---|-----------------|
||R-3-4-4-3-4S3-2-4S|=3-2-2-3-5-5-5-2-|-3-4-4-3-4S3-2-4S|
||--1-2-2-1-2S1-0-2S|=1-0-0-1-------0-|-1-2-2-1-2S1-0-2S|


                     
                          PM    PM    PM    PM
                  14x
|------------------||-------------------------||
|-----------------R||-------------------------||
|------------------||-------------------------||
|---------5-5-5----||-4S3---4S3---4S3---4S3---||
|-3-2-2-3-5-5-5-2-R||-4S3---4S3---4S3---4S3---||
|-1-0-0-1-------0--||-2S1-0-2S1-0-2S1-0-2S1-0-||


   ChRrus
    Em                    D          C      B
   
                                                10x
||-----------|----------|----------|-------------||
||R----------|----------|----------|------------R||
||-----------|----------|-5--------|-3----2------||
||--0--------|-0--------|-5--------|-2----2------||
||R-0--------|-0--------|-3--------|-1----0-----R||
||--0--------|-0--------|----------|-------------||


  E5
             PM|   PM|     PM|   PM|
|----------|-------------|-------------|
|----------|-------------|-------------|
|----------|-------------|-------------|
|-0--------|-0-0---0-0---|-0-0---0-0---|
|-0--------|-0-0---0-0---|-0-0---0-0---|
|-0--------|-0-0---0-0---|-0-0---0-0---|


                                      E5
  Gtr II
|-----------------|-----------------|----------T|
|-----------------|-----------------|----------H|
|-----------------|-----------------|----------E|
|-----------------|---------3-3-3---|-0--------E|
|-----------------|---------3-3-3---|-0--------N|
|-1-2-2-1-2-1-0-2-|-1-0-1-2-------0-|-0--------D|
|
| Gtr I
|-----------------|-----------------|----------E|
|-----------------|-----------------|----------N|
|-----------------|-----------------|----------J|
|-----------------|-----------------|-0--------O|
|-----------------|-----------------|-0--------Y|
|-----------------|-----------------|-0--------!|

Lyrics:

Saint Anger 'round my neck
Saint Anger 'round my neck
He never gets respect
Saint Anger 'round my neck
(You flush it out, you flush it out)
Saint Anger 'round my neck
(You flush it out, you flush it out)
He never gets respect
(You flush it out, you flush it out)
Saint Anger 'round my neck
(You flush it out, you flush it out)
He never gets respect

Fuck it all and no regrets
I hit the lights on these dark sets
I need a voice to let myself
To let myself go free
Fuck it all and fuckin' no regrets
I hit the lights on these dark sets
Tie a noose, I hang myself
Saint Anger 'round my neck

I feel my world shake
Like an earth quake
It's hard to see clear
Is it me? Is it fear?
I'm madly in anger with you
I'm madly in anger with you
I'm madly in anger with you
I'm madly in anger with you


(repeat all)

I want my anger to be healthy
I want my anger just for me
I need my anger not to control
I want my anger to be me
I need to set my anger free
I need to set my anger free
I need to set my anger free
I need to set my anger free
Set it free

Fuck it all and no regrets
I hit the lights on these dark sets
I need a voice to let myself
To let myself go free
Fuck it all and fuckin' no regrets
I hit the lights on these dark sets
Tie a noose, hang myself
Saint Anger 'round my neck

I feel my world shake
Like an earth quake
It's hard to see clear
Is it me? Is it fear?
I'm madly in anger with you
I'm madly in anger with you
I'm madly in anger with you
I'm madly in anger with you
I'm madly in anger with you
I'm madly in anger with you
I'm madly in anger with you
I'm madly in anger with you
Comments