Metallica - St Anger Chords & Tabs

 

St Anger Chords & Tabs

Metallica Chords & Tabs

Version: 5 Type: Bass Tab 0 ratings
1 star 2 stars 3 stars 4 stars 5 stars
comments

St Anger Bass Tab

   
I put the times in so you can listen to the song and hear when the parts are played! 

Tabbed By-Crazygasbag

ROCK ON METALLICA!

Main Riff-00:10/00:44/2:47

F:-----------------------------------
C:-----------------------------------
G:----------------------------3-3-3-3
C:0-1-2-2-0-2-1-0-2-1-1-0-1-1--------

Secondary Riff-00:34/2:37

F:-------------------------
C:-------------------------
G:-------------------------
C:2--1--0--2--1--0--2--1--0

Interval Riff-2:30
F:-----------------
C:-----------------
G:-----------------
C:0-00-00-00-00-0--

Verse-00:56/2:59
[ Tab from: http://www.guitartabs.cc/tabs/m/metallica/st_anger_btab_ver_5.html ]
F:---------------------------5-----------10--------2---
C:-----------------------------------------------------
G:5-5---5-5-5-5----5-5-3-3-3--3-3-8-8-8----8-0-0-----
C:-----------------------------------------------------

Pre Chorus-1:17/3:20

F:---------------------------5-----------10---------14--
C:------------------------------------------------------
G:5-5---5-5-5-5----5-5-3-3-3--3-3-8-8-8---8-12-12-----
C:------------------------------------------------------

Pre Chorus 2-1:37/3:40

F:-----------------------------
C:-----------------------------
G:5-------3-8-0-5-------8-13-12
C:--00-00---------00-00--------

Chorus-1:48/3:51

F:-------------------------------------------------------------------------
C:-------------------------------------------------------------------------
G:5555555555555-33333333-111111-000000-555555555555-333333333-111111-000000
C:-------------------------------------------------------------------------
Comments