Metallica - St Anger Chords & Tabs

 

St Anger Chords & Tabs

Metallica Chords & Tabs

Version: 4 Type: Bass Tab 0 ratings
1 star 2 stars 3 stars 4 stars 5 stars
comments

St Anger Bass Tab

i have my bass tuned to Gb,Db,Ab,Eb,Bb

key;t=thumbslap p=pluck

for this part wait until kirk hammet comes in on his guitar,until then its only
hetfield and ulrich playing,try and hit the notes in tune with ulrichs cymbal
G---------------------------------------
D---------------------------------------
A---------------------------------------riff 1
E---------------------------------------
B---x--x-x-x----------------------------
    t  t t t

this next part is kinda hard on the fretting hand,well it is on mine anyway,lol
G---------------------------------------
D---0--0--0-----------------------------
A----2--2--2-333------------------------riff 2
E-----1--1--1---------------------------
B---------------------------------------
    pppppp

this isnt exactly right to rob trujillos one,but it still sounds like it
G---------------------------------------
D---------------------------------------
A---------------------------------------riff 3
E-------2-0------1----------------------
B---0-1-----3-1----7-9------------------
    p p p p p p  p p p
[ Tab from: http://www.guitartabs.cc/tabs/m/metallica/st_anger_btab_ver_4.html ]
ditto for this one
G---------------------------------------
D---------------------------------------
A---------------------------------------riff 4
E-------2-0-----------------------------
B---0-1-----3-1---3---1---0-------------
    p p p p p p   p   p   p


play the chorus as fast as your fingers can possibly move!these are NOT power
chords ok,its the only way that i can put em up here,but play em 1 at a time,very
quickly,the chorus,i think has a first and second endings in it,on the first time
through,ending one is played,the first section is the played again,but play whats
in the second bracket this time round

G-------------------------------------------------------------------------
D-------------------------------------------------------------------------
A222222223333333322222222888888889999999988888888555555556666666655555555-
E000000000000000033333333000000000000000099999999000000000000000066666666-
B-------------------------------------------------------------------------
                         I___________________1._I______________________2.I
 pppppppppppppppppppppppppppppppppppppppppppppppppppppppppppppppppppppppp


ORDER
riff1 x1
riff2 x8
riff1 x1
riff3 x4
riff4 x4
riff1 x3
riff5 x4
riff1 x2
riff2 x8
riff1 x2
riff3 x4 
riff4 x4
riff1 x3
riff5 x4
riff1 x2
hetfield and ulrich start playin again,so just take a well earned brether for the
next few secs,listen to the part where hammet comes in on his guitar then..
riff1 x1
riff2 x25(that part really tires out your fretting hand but try to bear with)
riff1 x1
riff5 x6
riff1 x1
Comments