Metallica - Some Kind Of Monster Complete Chords & Tabs

 

Some Kind Of Monster Complete Chords & Tabs

Metallica Chords & Tabs

Version: 2 Type: Tab 4 ratings
1 star 2 stars 3 stars 4 stars 5 stars
comments

Some Kind Of Monster Complete Tab

Song:	Some Kind of Monster
Artist:	Metallica
Album:	St. Anger (2003)
Tabbed:	Jonathon Reinhart - Kidd6488@aol.com
Tuning:	Drop C (CGCFAD)

Key: B-full bend   h-hammer on
     b-half bend   p-pull off
     r-release     NH-natural harmonic
     /-slide up    PM-palm mute
     \-slide down

Notes:  This song has some tricky orders, and re-uses some riffs
	with changes.  That makes it really difficult to tab.
	So just listen to the CD if you can't figure it out by
	my tab.  Riff J is tricky, too. I think its right, but
	its so fast that no one will probably notice. Have fun.
------------------------------------------------------------------
Order of Riffs:

	Name  |Riff|    X |Notes
	---------------------------
	Intro	A	1   
	-----	B  	4
	-----	C	2
	-----	A	1  Don't play first open notes
        -----	D	as many as directed in riff
	-----	A	  play the 333 from riff D first
	-----	D	as many as directed in riff
	-----	C	2
	-----	A	1
	-----	E	6
	_/-----	E	8  (gtr1)
	 \----- F	2  (gtr2)
	-----	E	1
	-----	G	2
	-----	H	2
	-----	E	1
	_/-----	E	8  (gtr1)
	 \----- F	2  (gtr2)
	-----	I	2
	Puase
	-----   J	1
	Pause	
	-----	J	2
	-----	I	2
	-----	B	4
	-----	A	  play the 333 from riff D first

	-----	E	6
	_/-----	E	8  (gtr1)
	 \----- F	2  (gtr2)
	-----	E	1
	-----	G	2
	-----	H	2
	-----	E	1
	_/-----	E	8  (gtr1)
	 \----- F	2  (gtr2)
	-----	I	2
	Pause
	-----   J	1
	Pause	
	-----	J	2
	-----	I	2
	-----	B	4
	-----	A	  play the 333 from riff D first
	-----	E	1
	-----	K	6  notice the two gtr parts.
	-----	L	(Gtr2)x4 (Gtr1)x8
	_/-----	H	(Gtr1) 2
	 \----- M	(Gtr2) 4
	-----	L	(Gtr2)x4 (Gtr1)x8
	_/-----	H	(Gtr1) 2
	 \----- M	(Gtr2) 4
	-----	N	1
	-----	J	1
	-----	O	1
	-----	J	3
	-----	B	4
	-----	A	1
	-----	E	2
	-----	P	2
[ Tab from: http://www.guitartabs.cc/tabs/m/metallica/some_kind_of_monster_complete_tab_ver_2.html ]
-------------------------------------------------------------------
Riff A (Slightly Distorted, maybe neck pickup):

                                    * only play 2nd time of intro
D|----------------------|-----------------------------|
A|----------------------|-----------------------------|
F|----------------------|-----------------------------|
C|----------------------|-----------------------------|
G|----------------------|-----------------------------|
C|-0---0-0---3---5---0--|-0--3--5--0--3--5--0--3--5br*|
 
                                     **feedback 2nd time of intro
D|----------------------|-----------------------------|
A|----------------------|-----------------------------|
F|----------------------|-----------------------**----|
C|----------------------|-----------------------------|
G|----------------------|-----------------------------|
C|-0---0-0---3---5---0--|-0--3--5--0--3--5--0-(3--5)--|
                                            (other than intro)

Riff B (Heavy Metal Distortion):

D|----------------------|-----------------------------|
A|----------------------|-----------------------------|
F|----------------------|-----------------------------|
C|-0---0-0---3---5---0--|-0--3--5--0--3--5--0--3--5---|
G|-0---0-0---3---5---0--|-0--3--5--0--3--5--0--3--5---|
C|-0---0-0---3---5---0--|-0--3--5--0--3--5--0--3--5---|
                         PM       PM       PM

Riff C (Distortion):
                                       (final time)
D|-------:--------|--12NH---------------:-------|
A|-------:--------|--12NH---------------:-------|
F|-------:--------|--12NH---------------:-------|
C|-3-3-3-:--5--0--|-----------3-3-3-----:-(5-0)-|
G|-3-3-3-:--5--0--|-----------3-3-3-----:-(5-0)-|
C|-3-3-3-:--5--0--|-----------3-3-3-----:-(5-0)-|
         | 
Comments