Metallica - So What Chords & Tabs

 

So What Chords & Tabs

Metallica Chords & Tabs

Version: 3 Type: Tab 0 ratings
1 star 2 stars 3 stars 4 stars 5 stars
comments

So What Tab

transcribed by brian beene
age 14
ive also tabbed some stuff by alien ant farm and lifehouse
  






So fucking
     what!      Gtr1
||------------||-----------|-----------|---------|-----------|
||------------||-----------|-----------|---------|-----------|
||------------||-----------|-----------|---------|-----------|
||------------||-5\7-7-7-7-|-5\7-7-7-7-|-5-7-5-7-|-5\7-7-7-7-|
||------------||-5\7-7-7-7-|-5\7-7-7-7-|-5-7-5-7-|-5\7-7-7-7-|
||------------||-3\5-5-5-5-|-3\5-5-5-5-|-3-5-3-5-|-3\5-5-5-5-|

 Gtr1&2
|-----------|-----------|---------|-----------|
|-----------|-----------|---------|-----------|
|-----------|-----------|---------|-----------|
|-5\7-7-7-7-|-5\7-7-7-7-|-5-7-5-7-|-5\7-7-7-7-|
|-5\7-7-7-7-|-5\7-7-7-7-|-5-7-5-7-|-5\7-7-7-7-|
|-3\5-5-5-5-|-3\5-5-5-5-|-3-5-3-5-|-3\5-5-5-5-|


|----------|----------|----------|----------|           \
|----------|----------|----------|----------|            \
|-5\7777777|-77777777-|-77777777-|-77777777-|            |
|-5\7777777|-77777777-|-77777777-|-77777777-|            |
|-3\5555555|-55555555-|-55555555-|-55555555-|            |
|----------|----------|----------|----------|            |
                                                         |
                                                         |
|-----------|-----------|---------|-----------|          |
|-----------|-----------|---------|-----------|          |
|-----------|-----------|---------|-----------|          |
|-5\7-7-7-7-|-5\7-7-7-7-|-5-7-5-7-|-5\7-7-7-7-|          |
|-5\7-7-7-7-|-5\7-7-7-7-|-5-7-5-7-|-5\7-7-7-7-|          |
|-3\5-5-5-5-|-3\5-5-5-5-|-3-5-3-5-|-3\5-5-5-5-|          |
                                                         |
                                                         |
|----------|----------|----------|----------|            |
|----------|----------|----------|----------|            |
|-5\7777777|-77777777-|-77777777-|-77777777-|            |
|-5\7777777|-77777777-|-77777777-|-77777777-|            |
|-3\5555555|-55555555-|-55555555-|-55555555-|            |
|----------|----------|----------|----------|            \    3 times
                                                          \
                                                           >  1&2&3 Verse
|-----------|-----------|---------|-----------|           /
|-----------|-----------|---------|-----------|          /
|-----------|-----------|---------|-----------|          |
|-5\7-7-7-7-|-5\7-7-7-7-|-5-7-5-7-|-5\7-7-7-7-|          |
|-5\7-7-7-7-|-5\7-7-7-7-|-5-7-5-7-|-5\7-7-7-7-|          |
|-3\5-5-5-5-|-3\5-5-5-5-|-3-5-3-5-|-3\5-5-5-5-|          |
                                                         |
 Gtr1                                                    |
|----------|----------|-----------|-----------|          |
|----------|----------|-----------|-----------|          |
|----------|-----2----|-----------|-----------|          |
|-----2----|---2---2--|-5\7-7-7-7-|-5\7-7-7-7-|          |
|---2---2--|-1--------|-5\7-7-7-7-|-5\7-7-7-7-|          |
|-1--------|----------|-3\5-5-5-5-|-3\5-5-5-5-|          |
|          |          |           |           |          |
|Gtr2      |          |           |           |          |
|----------|-6--------|-----------|-----------|          |
|-----6----|---6------|-----------|-----------|          |
|---5---5--|-----3----|-----------|-----------|          |
|-3--------|-------3--|-----------|-----------|          |
|----------|----------|-----------|-----------|          |
|----------|----------|-----------|-----------|          |
                                                         |
                                                         |
 Gtr1                                                    |
|----------|----------|-----------|-----------|          |
|----------|----------|-----------|-----------|          |
|----------|-----2----|-----------|-----------|          |
|-----2----|---2---2--|-5\7-7-7-7-|-5\7-7-7-7-|          |
|---2---2--|-1--------|-5\7-7-7-7-|-5\7-7-7-7-|          |
|-1--------|----------|-3\5-5-5-5-|-3\5-5-5-5-|          |
|          |          |           |           |          |
|Gtr2      |          |           |           |          |
|----------|-6--------|-----------|-----------|          |
|-----6----|---6------|-----------|-----------|          |
|---5---5--|-----3----|-----------|-----------|          |
|-3--------|-------3--|-----------|-----------|          |
|----------|----------|-----------|-----------|          |
|----------|----------|-----------|-----------|          |
                                                         |
|---------|-----------|                                  |
|---------|-----------|                                  |
|---------|-----------|                                  |
|-5-7-5-7-|-5\7-7-7-7-|                                  |
|-5-7-5-7-|-5\7-7-7-7-|                                  /
|-3-5-3-5-|-3\5-5-5-5-|                                 /

 Gtr1
|----------|----------|----------|----------|           \
|----------|----------|----------|----------|            \
|-5\7777777|-77777777-|-77777777-|-77777777-|            |
|-5\7777777|-77777777-|-77777777-|-77777777-|            |
|-3\5555555|-55555555-|-55555555-|-55555555-|            |
|----------|----------|----------|----------|            |
                                                         |
                                                         |
|-----------|-----------|---------|-----------|          |
|-----------|-----------|---------|-----------|          |
|-----------|-----------|---------|-----------|          |
|-5\7-7-7-7-|-5\7-7-7-7-|-5-7-5-7-|-5\7-7-7-7-|          |
|-5\7-7-7-7-|-5\7-7-7-7-|-5-7-5-7-|-5\7-7-7-7-|          |
|-3\5-5-5-5-|-3\5-5-5-5-|-3-5-3-5-|-3\5-5-5-5-|          |
                                                         |
                                                         |
|----------|----------|----------|----------|            |
|----------|----------|----------|----------|            |
|-5\7777777|-77777777-|-77777777-|-77777777-|            |
|-5\7777777|-77777777-|-77777777-|-77777777-|            |    JAMES H.
|-3\5555555|-55555555-|-55555555-|-55555555-|            \     playes.
|----------|----------|----------|----------|             \   rhytm gtr.
                                                           >     &&&
                                                          /   MR.HAMMETT
|-----------|-----------|---------|-----------|          /       the
|-----------|-----------|---------|-----------|          |      solo
|-----------|-----------|---------|-----------|          |
|-5\7-7-7-7-|-5\7-7-7-7-|-5-7-5-7-|-5\7-7-7-7-|          |
|-5\7-7-7-7-|-5\7-7-7-7-|-5-7-5-7-|-5\7-7-7-7-|          |
|-3\5-5-5-5-|-3\5-5-5-5-|-3-5-3-5-|-3\5-5-5-5-|          |
                                                         |
                                                         |
|----------|----------|-----------|-----------|          |
|----------|----------|-----------|-----------|          |
|----------|-----2----|-----------|-----------|          |
|-----2----|---2---2--|-5\7-7-7-7-|-5\7-7-7-7-|          |
|---2---2--|-1--------|-5\7-7-7-7-|-5\7-7-7-7-|          |
|-1--------|----------|-3\5-5-5-5-|-3\5-5-5-5-|          |
                                                         |
                                                         |
|----------|----------|-----------|-----------|          |
|----------|----------|-----------|-----------|          |
|----------|-----2----|-----------|-----------|          |
|-----2----|---2---2--|-5\7-7-7-7-|-5\7-7-7-7-|          |
|---2---2--|-1--------|-5\7-7-7-7-|-5\7-7-7-7-|          |
|-1--------|----------|-3\5-5-5-5-|-3\5-5-5-5-|          |
                                                         |
|---------|-----------|                                  |
|---------|-----------|                                  |
|---------|-----------|                                  |
|-5-7-5-7-|-5\7-7-7-7-|                                  |
|-5-7-5-7-|-5\7-7-7-7-|                                  /
|-3-5-3-5-|-3\5-5-5-5-|                                 /

  SOLO
e:-------------------------------|-------------------------------|
B:---13/15~--15~-15~-15~-15~-15~-|---13/15~--15~-15~-15~-15~-15~-|
G:---12/14~--14~-14~-14~-14~-14~-|---12/14~--14~-14~-14~-14~-14~-|
D:-------------------------------|-------------------------------|
A:-------------------------------|-------------------------------|
E:-------------------------------|-------------------------------|


e:--------------------------------------|-----------------------------------|
B:---13/15~--13/15~--13/15\13/15~--15~--|-----------------------------------|
G:---12/14~--12/14~--12/14\12/14~--14~--|--7/9--7--5-----5--7---5/7~--5/7~--|
D:--------------------------------------|-------------7---------------------|
A:--------------------------------------|-----------------------------------|
E:--------------------------------------|-----------------------------------|

[ Tab from: http://www.guitartabs.cc/tabs/m/metallica/so_what_tab_ver_3.html ]
e:------------------------------|---------------------------|
B:------------------------------|---------------------------|
G:--5/7~--5--7---------5--7--5--|------5--7--5-----5--7--5--|
D:------------------7-----------|---7-----------7-----------|
A:------------------------------|---------------------------|
E:------------------------------|---------------------------|


e:----------------------|--------------------------------|
B:----------------------|---13/15~--15~-15~-15~-15~-15~--|
G:--5-------------------|---12/14~--14~-14~-14~-14~-14~--|
D:----------------------|--------------------------------|
A:----------------------|--------------------------------|
E:----------------------|--------------------------------|


e:---------------------------------|-------------------------|
B:---------------------------------|-------------------------|
G:--12/14--12--------------12--14--|--12/14\12/14\12--14~----|
D:-------------15--12--15----------|-------------------------|
A:---------------------------------|-------------------------|
E:---------------------------------|-------------------------|


e:---------------------------------------------|------------------------|
B:---------------------------------------------|------------------------|
G:--12/14--12--------------12--14--12----------|---7~-----5-------------|
D:-------------15--12--15--------------15--12--|-------------7----------|
A:---------------------------------------------|------------------------|
E:---------------------------------------------|------------------------|


e:-------------------------|----------------------|-------------------------|
B:-------------------------|----------------------|-------------------------|
G:------5------------------|-----5-----5--7--9~---|--7/9\7--5/7\5-----5-----|
D:---7-----7--5--7---------|--7-----7-------------|----------------7-----7--|
A:-------------------------|----------------------|-------------------------|
E:-------------------------|----------------------|-------------------------|


e:-------------------------------|-----------------------------|
B:-------------------------------|-----------------------20----|
G:-------17--19--17--------------|-------17--19--17------------|
D:---19--------------19--19------|---19--------------19--------|
A:-------------------------------|-----------------------------|
E:-------------------------------|-----------------------------|


e:---17/19\17------------------------------------|
B:------------20-17----------------17-20----20~--|
G:------------------19-17----17-19-------19-19~--|
D:------------------------19---------------------|
A:-----------------------------------------------|
E:-----------------------------------------------|


e:----------------------------|----------------------------|
B:----------------------------|-----------------------20---|
G:-------17--19--17-----------|-------17--19--17-----------|
D:---19--------------19--19---|---19--------------19-------|
A:----------------------------|----------------------------|
E:----------------------------|----------------------------|


e:---------------------------|
B:-------17--20~--20~--20~---|
G:---19------19~--19~--19~---|
D:---------------------------|
A:---------------------------|
E:---------------------------|
                    SOLO'S END.

e:----------------------------------------------------------|
B:----------------------------------------------------------|
G:---17--------------17------17--19--17/19\17------17-------|
D:-------19--17--19------19--------------------19------19~--|
A:----------------------------------------------------------|
E:----------------------------------------------------------|.



 Gtr1&2                                                 \
|----------|----------|----------|----------|            \
|----------|----------|----------|----------|            |
|-5\7777777|-77777777-|-77777777-|-77777777-|            |
|-5\7777777|-77777777-|-77777777-|-77777777-|            |
|-3\5555555|-55555555-|-55555555-|-55555555-|            |
|----------|----------|----------|----------|            |
                                                         |
                                                         |
|-----------|-----------|---------|-----------|          |
|-----------|-----------|---------|-----------|          |
|-----------|-----------|---------|-----------|          |
|-5\7-7-7-7-|-5\7-7-7-7-|-5-7-5-7-|-5\7-7-7-7-|          |
|-5\7-7-7-7-|-5\7-7-7-7-|-5-7-5-7-|-5\7-7-7-7-|          |
|-3\5-5-5-5-|-3\5-5-5-5-|-3-5-3-5-|-3\5-5-5-5-|          |
                                                         |
                                                         |
|----------|----------|----------|----------|            |
|----------|----------|----------|----------|            |
|-5\7777777|-77777777-|-77777777-|-77777777-|            |
|-5\7777777|-77777777-|-77777777-|-77777777-|            |
|-3\5555555|-55555555-|-55555555-|-55555555-|            |
|----------|----------|----------|----------|            \
                                                          \
                                                           >   4 Verse
|-----------|-----------|---------|-----------|           /
|-----------|-----------|---------|-----------|          /
|-----------|-----------|---------|-----------|          |
|-5\7-7-7-7-|-5\7-7-7-7-|-5-7-5-7-|-5\7-7-7-7-|          |
|-5\7-7-7-7-|-5\7-7-7-7-|-5-7-5-7-|-5\7-7-7-7-|          |
|-3\5-5-5-5-|-3\5-5-5-5-|-3-5-3-5-|-3\5-5-5-5-|          |
                                                         |
 Gtr1                                                    |
|----------|----------|-----------|-----------|          |
|----------|----------|-----------|-----------|          |
|----------|-----2----|-----------|-----------|          |
|-----2----|---2---2--|-5\7-7-7-7-|-5\7-7-7-7-|          |
|---2---2--|-1--------|-5\7-7-7-7-|-5\7-7-7-7-|          |
|-1--------|----------|-3\5-5-5-5-|-3\5-5-5-5-|          |
|          |          |           |           |          |
|Gtr2      |          |           |           |          |
|----------|-6--------|-----------|-----------|          |
|-----6----|---6------|-----------|-----------|          |
|---5---5--|-----3----|-----------|-----------|          |
|-3--------|-------3--|-----------|-----------|          |
|----------|----------|-----------|-----------|          |
|----------|----------|-----------|-----------|          |
                                                         |
                                                         |
 Gtr1                                                    |
|----------|----------|-----------|-----------|          |
|----------|----------|-----------|-----------|          |
|----------|-----2----|-----------|-----------|          |
|-----2----|---2---2--|-5\7-7-7-7-|-5\7-7-7-7-|          |
|---2---2--|-1--------|-5\7-7-7-7-|-5\7-7-7-7-|          |
|-1--------|----------|-3\5-5-5-5-|-3\5-5-5-5-|          |
|          |          |           |           |          |
|Gtr2      |          |           |           |          |
|----------|-6--------|-----------|-----------|          |
|-----6----|---6------|-----------|-----------|          |
|---5---5--|-----3----|-----------|-----------|          |
|-3--------|-------3--|-----------|-----------|          |
|----------|----------|-----------|-----------|          /
|----------|----------|-----------|-----------|         /

                    So fucking what!  Yeah!
|---------|---------|-----------------|----||
|---------|---------|-----------------|----||
|---------|---------|-----------------|----||
|-5-7-5-7-|-5-7-5-7-|-----------------|-7\-||
|-5-7-5-7-|-5-7-5-7-|-----------------|-7\-||
|-3-5-3-5-|-3-5-3-5-|-----------------|-5\-||.


  So fucking what!
1/Well I've been to Hastings,
  and I've been to Brighton.
  I've been to Eastport too.
  So what.  So what.
  And I've been here,
  I've been there.
  I've been everying fucking where.
  So what. So what.
  So what, so what, you boring little cunt.
       Who cares. Who cares what you do.
  Yeah Who cares, Who cares about you,      you,     you,     you,     you.
 
2/Well I've fucked a queen.
  I've fucked fucked.
  I've even sucked an old man's cock.
  So what.  So what.
  And I've fucked a sheep.
  I've fucked a goat.
  I rammed my cock right down his throat.
  So what. So what.
  So what, so what, you boring little fuck.
       Who cares. Who cares what you do.
    And who cares,
    Who cares about you, you, you, you, you.

3/And I've drunk that,
  I've drunk this.
  I've spewed up on a pint of piss.
  So what. So what.
  I've had scank,
  I've have speed.
  I've jacked up until I bleed.
  So what. So what.
  So what, so what, you boring little cunt.
    Who cares. Who cares what you do.
    Yeah who cares,
    Who cares about you, you, you, you, you.
 
             

4/I've had crabs,
  I've had lice,
  I've had the clap and that ain't nice.
  So what. So what.
  I've fucked this,
  I've fucked that.
  I've even fucked a school girl's twat.
  So what. So what.
  So what, so what you boring little fuck.
    Who cares. Who cares what you do.
    And who cares,
    Who cares about you, you, you, you, you, you.
 
So fucking what!
Yeah!

thanx 4 checkin out my tab
if u have corrections send to beeneman_60@hotmail.com
later
Comments