Metallica - Seek And Destroy Chords & Tabs

 

Seek And Destroy Chords & Tabs

Metallica Chords & Tabs

Version: 5 Type: Tab 0 ratings
1 star 2 stars 3 stars 4 stars 5 stars
comments

Seek And Destroy Tab

   
standart tuning (E, A, D, G, B, E - from low to high)

INTRO
|-----------------------------------------|
|-----------------------------------------|
|-----(5/)7h8-7-----------------------5---|
|-----------------(5/)7h8-7-------5-----7-|
|-0-0-----------0-----------0-8-7---7-----|
|-----------------------------------------|
PM. .           .           . . .   .

INTERLUDE
|----------------------|
|----------------------|
|-9--7-----7-----------|
|-------9-----9--8--7--|
|----------------------|
|----------------------|

RIFF A
|---------------------------------|
|---------------------------------|
|---------------------------------|
|---------5-7-5-7-----------------|
|---------5-7-5-7---------7-5-----|
|-0-0-0-0---------0-0-0-0-----7-6-|
PM. . . .         . . . .

RIFF B
|---------------------------------|
|---------------------------------|
|---------------------------------|
|-----------------------------5---|
|-------------------------------7-|
|-0-0-0-0-0-0-0-0-0-0-0-0-7-6-----|
PM. . . . . . . . . . . .

PRE-CHORUS
|-------------------------------------------|
|-------------------------------------------|
|---------5-7-5---------5-7-5---------5-7-5-|
|---------5-7-5---------5-7-5---------5-7-5-|
|-0-0-0-0-------0-0-0-0-------0-0-0-0-------|
|-------------------------------------------|
PM. . . .       . . . .       . . . .

CHORUS
|---------------------------|
|---------------------------|
|---------------------------|
|-12--11--10--9-------------|
|-10---9---8--7-------------|
|---------------0-0-0-0-0-0-|
PM              . . . . . .
[ Tab from: http://www.guitartabs.cc/tabs/m/metallica/seek_and_destroy_tab_ver_5.html ]
RIFF C
|-----------------|-----------------|---------------|
|-----------------|-----------------|---------------|
|-----------------|-5---------------|-4-------------|
|-5-7---7-----7---|-5-----7-----7---|-4-----7-----7-|
|-0-0-0---0-0---0-|---0-0---0-0---0-|---0-0---0-0---|
|-----------------|-----------------|---------------|
PM    .   . .   .     . .   . .   .     . .   . .

|-----------------|
|-----------------|
|-----------------|
|-------3-2-0-----|
|-3-2-0-------3-0-|
|-----------------|

RIFF D
|-----------------|-----------------|---------------|
|-----------------|-----------------|---------------|
|-----------------|-----------------|---------------|
|-----------------|-5---------------|-4-------------|
|-5h7---7-----7---|-5-----7-----7---|-4-----7-----7-|
|-----0---0-0---0-|---0-0---0-0---0-|---0-0---0-0---|
PM    .   . .   .     . .   . .   .     . .   . .

|-----------------|
|-----------------|
|-----------------|
|-----------------|
|-------3-2-0-----|
|-3-2-0-------3-0-|

RIFF E
|---------------------------------|
|---------------------------------|
|---------------------------------|
|---------12-11----11-10----10--9-|
|---------10--9-----9--8-----8--7-|
|-0-0-0-0-------0-0------0-0------|
PM. . . .       . .      . .

|---------------------------------|
|---------------------------------|
|---------------------------------|
|---------12-11----11--7-----7--9-|
|---------10--9-----9--5-----5--7-|
|-0-0-0-0-------0-0------0-0------|
PM. . . .       . .      . .

END
|-----------|
|-----------|
|-----------|
|---------9-|
|---------7-|
|-0-0-0-0---|
PM. . . .

ORDER:
Intro x8
Interude x1
Riff A x4
Riff B x8
Pre-Chorus x3
Interlude x1
Pre-Chorus x3
Interlude x2
Chorus x4
Riff A x4
Riff B x8
Pre-Chorus x3
Interlude x1
Pre-Chorus x3
Chorus x4
Riff C x8
Chorus x4 (double speed)
Riff C x8
Interlude x1
Intro x8
Riff A x4
Riff B x8
Pre-Chorus x3
Interlude x1
Pre-Chorus x3
Chorus x4
Riff E x4
Riff D x4
Interlude x3
End x1
Comments