Metallica - Seek And Destroy Chords & Tabs

 

Seek And Destroy Chords & Tabs

Metallica Chords & Tabs

Version: 3 Type: Tab 5 ratings
1 star 2 stars 3 stars 4 stars 5 stars
comments

Seek And Destroy Tab

   
Metallica - Kill Em All - Seek And Destroy
Tabbed By: Matt McLean 9-22-02
Email:Ironmatt67@Hotmail.com

    Intro:
 E||----------------------------------------------------------------||
 B||----------------------------------------------------------------||
 G||---------7h8-7----------------------------5---------------------||
 D||--------------------7h8--7----------5---------7-----------------||
 A||--0--0----------0-----------0-7-6------7------------------------||
 E||----------------------------------------------------------------||
                    ^          
    P.M...|        P.M         P.M...|

 E||------------------------||
 B||------------------------||
 G||---9-7---7--------------||
 D||-------9---9-7-9-/15----||
 A||------------------------||
 E||------------------------||





 RIFF A:  (Play 8 Times)
 E||----------------------------------------------------------------||
 B||----------------------------------------------------------------||
 G||------------5--7------------------------------------------------||
 D||------------5--7------------------------------------------------||
 A||----------------------------7--5--------------------------------||
 E||---0-0-0-0--------0-0-0-0--------7--6---------------------------||

    P.M......|       P.M.....|


 RIFF B:   (Play 8 Times)
 E||----------------------------------------------------------------||
 B||----------------------------------------------------------------||
 G||----------------------------------------------------------------||
 D||----------------------------------5-----------------------------||
 A||--------------------------------------7-------------------------||
 E||--0-0-0-0-0-0-0-0-0-0-0-0----7-6--------------------------------||

    P.M.............................|

                 Repeat 2x

 RIFF C:   (Play 3 Times)       (Play Once)
 E||--------------------------|-------------------------------------||
 B||--------------------------|-------------------------------------||
 G||--------------------------|--7-5--------------------------------||
 D||---5-----------5---7---5--|------7-6-5--------------------------||
 A||---3---0-0-0---3---5---3--|-----------7-6-5---------------------||
 E||--------------------------|-------------------------------------||
   
     P.M........|
 
 
   Chorus:  (Play 4 Times)
 E||----------------------------------------------------------------||
 B||----------------------------------------------------------------||
 G||----------------------------------------------------------------||
 D||---12-------11--10--9-------------------------------------------||
 A||---10-------9---8---7-------------------------------------------||
 E||-----------------------0-0-0-0-0-0-0-0-0-0-0-0-0-0-0-0----------||

                          P.M.............................|
 
  Repeat RIFF A 4x

  Repeat RIFF B 4x
 
  Repeat RIFF C 1x
  
  Repeat Chorus 4x
  
  

     RIFF D   (Play 4 Times)
 E||--------------------------------------------------------------||
 B||--------------------------------------------------------------||
 G||--------------------------------------------------------------||
 D||----7-----7-----7---10-----7-----7---9-----7-----7------------||
 A||------0-0---0-0---0----0-0---0-0---0---0-0---0-0---0----------||
 E||--------------------------------------------------------------||
          ^ ^   ^ ^   ^    ^ ^   ^ ^   ^   ^ ^   ^ ^   ^
         P.M ...........................................   

 E||----------------------------||
 B||----------------------------||
 G||----------------------------||
 D||----------3-2-0-------------||
 A||-3--2--0---------3-2--------||
 E||----------------------------||
 
    P.M.................|

  Solo:
                                                                        
 E||---------12--15p12------12--15p12--17p12--15p12------12--15p12--17----||
 B||--12/15-------------12---------------------------15-------------------||
 G||----------------------------------------------------------------------||
 D||----------------------------------------------------------------------||
 A||----------------------------------------------------------------------||
 E||----------------------------------------------------------------------||
                                                                        

                                                                        
 E||--12--15--12------12------12------------------------------------------||
 B||--------------15------15------15^-------------------------------------||
 G||----------------------------------------------------------------------||
 D||----------------------------------------------------------------------||
 A||----------------------------------------------------------------------||
 E||----------------------------------------------------------------------||
                                                                        

                                                                        
         

                                                                        
 E||--------7--7--10p7------7--7------------------------------------------||
 B||--------------------10--------10p7--10p7------------------------------||
 G||------------------------------------------9--7-----7--9^--(9)p7-------||
 D||------------------------------------------------9----------------9----||
 A||----------------------------------------------------------------------||
 E||----------------------------------------------------------------------||
                                                                        

                                                                        
   

                                                                        
 E||--17^----------16--15--14---------------------------------------------||
 B||-----------15--------------15--14----------15^^-----------------------||
 G||-------15--------------------------16---------------------------------||
 D||---------------------------------------17-----------------------------||
 A||----------------------------------------------------------------------||
 E||----------------------------------------------------------------------||
                                                                        

                                                                        
 E||-----------------20--20--23--20--18--22--19--19--21--21--17--15-------||
 B||------------/23-------------------------------------------------------||
 G||----------------------------------------------------------------------||
 D||----------------------------------------------------------------------||
 A||----------------------------------------------------------------------||
 E||----------------------------------------------------------------------||
                                                                        
[ Tab from: http://www.guitartabs.cc/tabs/m/metallica/seek_and_destroy_tab_ver_3.html ]
                                                                        
 E||--19--16--14--14--17--14--12--16--12--11--14--12\11--9\7--10p7--------||
 B||----------------------------------------------------------------10----||
 G||----------------------------------------------------------------------||
 D||----------------------------------------------------------------------||
 A||----------------------------------------------------------------------||
 E||----------------------------------------------------------------------||
                                                                        

                                                                        
 E||--7--10--7------------------------------------------------------------||
 B||------------10--7--10p7-----------7-----------------------------------||
 G||-------------------------9--7--9-----9--9^--(9)p7--9--7-----7---------||
 D||---------------------------------------------------------9------------||
 A||----------------------------------------------------------------------||
 E||---------------------------------------------------------------5------||
                                                                        

                                                                        
 E||----------------------------------------------------------------------||
 B||----------------------------------------------------------------------||
 G||----------------------------------------------------------------7-----||
 D||-------------7--9p7-----7h9--9--7--9--9^--(9)p7--9--7--(7)^--9--------||
 A||--------5/9----------9------------------------------------------------||
 E||--5--7----------------------------------------------------------------||
                                                                        

                                                                        
 E||----------------------------------------------------------------------||
 B||---------7--10p7-------------------------------------12--15^--12------||
 G||--9--9^-----------9--7-----7--9^--(9)p7--9^\----/14-------------------||
 D||------------------------9---------------------------------------------||
 A||----------------------------------------------------------------------||
 E||----------------------------------------------------------------------||
                                                                        

                                                                        
 E||------------------12----------------------12------------------12------||
 B||--15p12------15^------15p12--12--15--15^------15p12--15--15^----------||
 G||---------14-----------------------------------------------------------||
 D||----------------------------------------------------------------------||
 A||----------------------------------------------------------------------||
 E||----------------------------------------------------------------------||
                                                                        

                                                                        
 E||------12--15p12-------------------------------------------------------||
 B||--15-------------15--12------12--15p12--------------------------------||
 G||-------------------------14-------------14--12------12--14p12---------||
 D||------------------------------------------------14-------------14-----||
 A||----------------------------------------------------------------------||
 E||----------------------------------------------------------------------||
                                                                        

                                                                        
 E||----------------------------------------------------------------------||
 B||----------------------------------------------------------------------||
 G||--------------------------------------------------------------12------||
 D||--12----------------------------------12------12--14--12--14----------||
 A||------14--12----------12--14--12--14------14--------------------------||
 E||--------------15--15--------------------------------------------------||
                                                                        

                                                                        
 E||----------------------------------------------12------12--15p12-------||
 B||----------------------12------12--15--12--15------15------------------||
 G||------12--14--12--14------14------------------------------------------||
 D||--14------------------------------------------------------------------||
 A||----------------------------------------------------------------------||
 E||----------------------------------------------------------------------||
                                                                        

                                                                        
 E||----------------------------------------------------------------------||
 B||--15--12\11--12--15p12------------------------------------------------||
 G||------------------------14--12--(12)----------------------------------||
 D||----------------------------------------------------------------------||
 A||----------------------------------------------------------------------||
 E||----------------------------------------------------------------------||
                                                                        



 Repeat Intro  8x
  
 Repeat RIFF A 4x

 Repeat RIFF B 4x

 Repeat RIFF C 1x

 Repeat Chorus 4x

 
    RIFF F   (Play 4 Times)
 E||--------------------------------------------------------------||
 B||--------------------------------------------------------------||
 G||--------------------------------------------------------------||
 D||--10--9-------9---8-------8---7-------------------------------||
 A||--12--11------11--10------10--9-------------------------------||
 E||----------0-0---------0-0-------0-0-0-0-0-0-------------------||
              ^ ^         ^ ^
             P.M         P.M      P.M..........|
         
 E||------------------------------------------||
 B||------------------------------------------||
 G||------------------------------------------||
 D||--10--9------9---5-----5--7---------------||
 A||--12--11-----11--7-----7--9---------------||
 E||---------0-0-------0-0------0-0-0-0-0-0---||
             ^ ^       ^ ^
            P.M       P.M      P.M.........|




   RIFF G   (Play 8 Times)

 E||----------------------------------------------||
 B||----------------------------------------------||
 G||----------------------------------------------||
 D||----------------------------------------------||     
 A||-------3-------2--------3-------4-------6-5---||
 E||--0-0--3--0-0--2---0-0--3--0-0--4--0-0--6-5---||
      ^ ^     ^ ^      ^ ^     ^ ^     ^ ^
     P.M     P.M      P.M     P.M     P.M
  
  Outro   (Play Once)
 
 E||---------------------------------------------------------------------||
 B||---------------------------------------------------------------------||
 G||----7-5--------------7-5--------------7-5----------------------------||
 D||--------7-6-5------------7-6-5------------7-6-5-------------------2--||
 A||--------------7-6-5------------7-6-5------------7-6-5-------------2--||
 E||---------------------------------------------------------0-0-0-0--0--||

                                                            P.M.....|




Comments