Metallica - Seattle Bass Chords & Tabs

 

Seattle Bass Chords & Tabs

Metallica Chords & Tabs

Version: 1 Type: Bass Tab 0 ratings
1 star 2 stars 3 stars 4 stars 5 stars
comments

Seattle Bass Bass Tab

   
Metallica - Bass Solo
Performed and Written by Jason Newsted
'89 Seattle - Live Shit Binge and Purge
Tab by Jon (Jon696969@juno.com)

This is the solo from the Seattle video from the Live Shit
Box Set.  This solo can be played w/o hearing the origional solo
- There are 3 seperate concerts from the box set
Mexico City, Seattle, and San Diego.

tunings (E,A,D,G)

*play continuously 

Fig 1 (Main Riff)                   play 4 times
                                   
G----9-----9--------9-----9--------|--9------|
D------9-----9--------9-----9------|*---9---*|
A--7-----7-----7--6-----6-----6----|*-------*|
E--------------------------------9-|------9--|

Fig 2
[ Tab from: http://www.guitartabs.cc/tabs/m/metallica/seattle_bass_btab.html ]
G----------------------------------------|
D--------7-7-----7-7-----7-7-----7-------|
A----------------------------------------|
E--9-7-5-----5-5-----5-5-----5-5---5-6-7-|

Fig 3
          
 play 4 times
G---------|
D*-9-----*|
A*---9---*|
E------7--|

Fig 4

G-------------------------|
D-------------------------|
A-----6---7---9---7---6-6-|
E-7-7---7---7---7---7-----|

Fig 5 - need flexible hands for this one

G-------8---9---11---9---8----------9-|
D-----9---9---9----9---9---9-----9--9-|
A---7--------------------------7------|
E-7--------------------------0--------|


Fig 1
Fig 2
Fig 3
Fig 1
Fig 2
Fig 4
Fig 1
Fig 2
Fig 5

*This tab is a different solo and concert than the bass
tab for live shit already on this site
Comments