Metallica - Sanitarium Welcome Home Chords & Tabs

 

Sanitarium Welcome Home Chords & Tabs

Metallica Chords & Tabs

Version: 1 Type: Tab 1 rating
1 star 2 stars 3 stars 4 stars 5 stars
comments

Sanitarium Welcome Home Tab

   
WELCOME HOME (SANITARIUM) - METALLICA

		  TABBED BY SexMagiK
		SexMagiKrhcp@hotmail.com
			Jackass (c)

Legend:
 = Natural Harmonics         s = slide


This is only the sing intro 

                        
----------------3---353-2---|----------------2---2-----3-|
----------------------------|--------------------0-------|
--------------------------------|--------------------------------|
--------------------------------|--------------------------------|
--------------------------------|--------------------------------|
0-------------------------------|0-------------------------------|

0---------------------------|----------------------------|
----------------------------|----------------------------|
--------------------------------|--------------------------------|
--------------------------------|--------------------------------|
--------------------------------|--------------------------------|
0-------------------------------|0-------------------------------|

----------------------------|----------------------------|
----------------------------|----------------------------|
--------------------------------|----------------------------|
--------------------------------|--------------------------------|
--------------------------------|--------------------------------|
0-------------------------------|0-------------------------------|

*
----------------|----------------|--------|   
----------------|----------------|--------|   
------0-------0-|------0---------|--------|  REPEAT X 4
----4-------5---|----7-------0---|--0-----|   
--2-------3-----|--5-------4-----|2-----0-|   
0---------------|--------5---5s3-|--3s5---|   
                                    

Solo and the repeat * x 2
[ Tab from: http://www.guitartabs.cc/tabs/m/metallica/sanitarium_welcome_home_tab.html ]
------------------------------|--------10-s12--15-s17--17----|----------------|
------------------------------|10-s12------------------------|----------------|
--------11--12--9---------12--|------------------------------|----------------|
----9-------------------------|------------------------------|----------------|
7-----------------------------|------------------------------|----------------|
------------------------------|------------------------------|----------------|

--15--15--12--12s14---12^-r---|---12-------------------------|----------------|
------------------------------|15-----15--13--13---121312----|----------------|
------------------------------|--------------------------14--|12-s11----------|
------------------------------|------------------------------|--------12------|
------------------------------|------------------------------|------------14--|
------------------------------|------------------------------|----------------|

------------------------------|----19-----19-------------17--|171514----------|
------------------------------|--17---------17---------------|------171514----|
12s14-------------------------|16-------------16-s14-14------|------------1614|
------------------------------|------------------------------|----------------|
------------------------------|------------------------------|----------------|
------------------------------|------------------------------|----------------|

                              
----------------------------12|101210----------------5-------|----3-----------|
--------------------------13--|------13--12------------------|----------------|
12---------------------14----|------------------6-----------|4-----------6----|
----------------------14------|-------------/7----------/5---|-------/7-------|
------------------------------|------------------------------|----------------|
------------------------------|------------------------------|----------------|

Comments