Metallica - Sad But True Chords & Tabs

 

Sad But True Chords & Tabs

Metallica Chords & Tabs

Version: 7 Type: Tab 0 ratings
1 star 2 stars 3 stars 4 stars 5 stars
comments

Sad But True Tab

Song: Sad But True
Band: Metallica
Tabbed by: Sabbat666
Tuning: Drop D

      I know that drop D isn't the official tuning for this song, and its even
a little more difficult to play, but once you get it right, it fuckin kicks the
shit out of "tuned down one whole step." Rock on, Metalli-fuckers!

Intro
        PM...... 
e|-------------------------------------------------------------------------
b|-------------------------------------------------------------------------
g|--0----0--0--0--1----1---0-----------------------------------------------
d|--0----0--0--0--1----1---0-----------------------------------------------
a|------------------------------10--9--8--6--8h-6p-8h-6p-8h-6p-8h-6p-8h-6p-
d|-------------------------------------------------------------------------
[ Tab from: http://www.guitartabs.cc/tabs/m/metallica/sad_but_true_tab_ver_7.html ]
        PM......
e|-------------------------------------------------------------------------
b|-------------------------------------------------------------------------
g|--0----0--0--0--1----1---0-----------------------------------------------
d|--0----0--0--0--1----1---0--------------8--------------------------------
a|------------------------------10--9--8--6--------------------------------
d|-------------------------------------------------------------------------

Main Riff
        PM...                            PM...                         PM...
e|-------------|--------------------------------------------------------------
b|-------------|--------------------------------------------------------------
g|-------------|--------------------------------------------------------------
d|--0----------|---------------------0-----------------------------0----------
a|--0----0--0--|--3------------------0----0--0--3------------------0----0--0--
d|--0----0--0--|-----5--5/6\5--3--0--0----0--0-----5--5/6\5--3--0--0----0--0--

                           PM...           ~~~~~         ^~~~~~~
e|----------------------------------------------------------------------------
b|----------------------------------------------------------------------------
g|----------------------------------------------------------------------------
d|---------------------0------------------------------------------------------
a|--3------------------0----0--0--3-----3--3----3-----3--3--------------------
d|-----5--5/6\5--3--0--0----0--0-----0-------------0--------------------------
Comments