Metallica - Sad But True Chords & Tabs

 

Sad But True Chords & Tabs

Metallica Chords & Tabs

Version: 1 Type: Tab 3 ratings
1 star 2 stars 3 stars 4 stars 5 stars
comments

Sad But True Tab

Author/Artist: Metallica
Title: Sad But True
Album: The Black Album
Transcribed by: Kone182
Email: cradleslayer666@aol.com

Please E-mail me for corrections or chat (kone_182@hotmail.com for msn messenger)
 (cradleslayer666 for A.I.M).

* = palm mute
h = hit on
p = pull off
b = Bend upwards

Play whole tune with full metal distortion, ROCK ON METAL!!!!

Hope u enjoy, 
             Kone 
[ Tab from: http://www.guitartabs.cc/tabs/m/metallica/sad_but_true_tab.html ]
e|---------------------------|------------------------------------------------
b|---------------------------|------------------------------------------------
g|---------------------------|------------------------------------------------
d|-2-*2-*2-*2----------------|-2-*2-*2-*2-------------------------------------
a|-2-*2-*2-*2--5p0-1p0-------|-2-*2-*2-*2--5p0-5-5b--5p0-5-5b--5p0-5-5b-------
E|-0-*0-*0-*0----------3b----|-0-*0-*0-*0-------------------------------------
              

e|----------------------------------------------------------------------------
b|----------------------------------------------------------------------------
g|----------------------------------------------------------------------------
d|-7--7-7-7-8--8-8-8-7-7-7-8-8-8-7-7-7-8-8-8----------------------------------
a|-7--7-7-7-8--8-8-8-7-7-7-8-8-8-7-7-7-8-8-8--7-6-5-3h5p3h5p3h5p3h5p3h5-------
E|-5--5-5-5-6--6-6-6-5-5-5-6-6-6-5-5-5-6-6-6----------------------------------
         

Comments