Metallica - Poor Twisted Me Chords & Tabs

 

Poor Twisted Me Chords & Tabs

Metallica Chords & Tabs

Version: 1 Type: Tab 0 ratings
1 star 2 stars 3 stars 4 stars 5 stars
comments

Poor Twisted Me Tab

Poor Twisted Me
written by Hetfield & Ulrich
as performed on Load
Tab by Phil Boyle: phil@encycmet.com


tune all guitars down 1/2 step
1a)                      ^
eb------------------------------------------------------
Bb-----------5-----------7------------------------------
Gb-----------5-----------7------------------------------
Db----7---7-------7---7-------7--x-x----7---7--7p5------
Ab-------------------------------x-x---------------7p5--
Eb--5---5-------5---5-------5----x-x--5---5------------5
intro riff, verse follows similar pattern
This is basically played jazz style (let the vibe move you)
[ Tab from: http://www.guitartabs.cc/tabs/m/metallica/poor_twisted_me_tab.html ]
1b under verse)
eb----------------------------------------------
Bb----------------------------------------------
Gb------3-3-5-5-3--------------7----------------
Db------3-3-5-5-3-2----7---5---5---9-9-9-9-9-9-9
Ab--5-------------0----5---3-------7-7-7-7-7-7-7
Eb--3-------------------------------------------
"sympathy.......agony............poor twisted me"


2)
eb-----------------------------------------------------------
Bb-----------------------------------------------------------
Gb-----------------------------------------------------------
Db-----------------------------------------------------------
Ab--5-5-5--5-5-5--5-5-5--5-5-5--4-4-3-3-2-2-2-2-2-2-2-2-2-2-2
Eb--3-3-3--3-3-3--3-3-3--3-3-3--2-2-1-1-0-0-0-0-0-0-0-0-0-0-0
"finally reached the shore.....sea was warm"


3)
Gb------------------------7-7-7-7-7-----------
Db--7-7-7-7-7--5-5-5-5-5--5-5-5-5-5--2-2-2-2-2
Ab--5-5-5-5-5--3-3-3-3-3-------------0-0-0-0-0
Eb--------------------------------------------
             "Good to something my friend"


4)
Gb------------------------7-7-7-7-7-----------
Db--7-7-7-7-7--5-5-5-5-5--5-5-5-5-5--9-9-9-9-9
Ab--5-5-5-5-5--3-3-3-3-3-------------7-7-7-7-7
Eb--------------------------------------------
"such a burden to be"
Comments