Metallica - Outlaw Torn Chords & Tabs

 

Outlaw Torn Chords & Tabs

Metallica Chords & Tabs

Version: 2 Type: Tab 0 ratings
1 star 2 stars 3 stars 4 stars 5 stars
comments

Outlaw Torn Tab

   
OUTLAW TORN
As recorded by Metallica
(From the 1996 Album LOAD)

Words and Music by James Hetfield and Lars Ulrich

D5
x 5 7 7 x x E5
x 7 9 9 x x B5
x 2 4 4 x x E5(type 2)
0 7 9 9 x x 
A5
x 0 2 2 x x E5open
0 2 x x x x F5
1 3 3 x x x F5/F#
2 3 3 x x x 
G5
3 5 5 x x x F#5
2 4 4 x x x 


Gtr I (E A D G B E) - 'kirk solo'
Gtr II (E A D G B E) - 'james'
Gtr III (E A D G B E) - 'kirk'


   Intro
    Moderately Slow Rock Q=60
   4/4
    Gtr II
          PM--------------------|
    S S S S S S S S S S S S S S S T T   7x S S S S S S S S S S S S S S S S
||--------------------------------0-0---||-----------------------------------|
||o-------------------------------0-0--o||-----------------------------------|
||--------------------------------------||-----------------------------------|
||--3-2---3-3---3-3---3-3---3---3-------||-3-2---3-3---3-3---3-3---3---------|
||o-3-1---3-3---3-3---3-3---3---3------o||-3-1---3-3---3-3---3-3---3---------|
||--0-0---0-0---0-0---0-0---0---0-------||-0-0---0-0---0-0---0-0-----0-3-0---|
|
|   Gtr III
|   S S   E Q         H                 7x   S S E   Q       Q     Q
||--------------------------------------||-------------------------6---------|
||o------------------------------------o||-------------------------6---------|
||--------------------------------------||-----------------------------------|
||--------------------------------------||-----------------------------------|
||o-6----------------------------------o||---6---------------6---------------|
||--6-0---------------------------------||---6-0-------------6---------------|


    Gtrs II, III
        PM  PM    PM    PM    PM  PM
    S S S S S S S S S S S S S S S S
||----------------------------------|
||o---------------------------------|
||----------------------------------|
||----------------------------------|
||o-5-7---7---5-7---5-7---5-7---7---|
||--0-0-0-0-0-0-0-0-0-0-0-0-0-0-0-0-|


  S   +S  S S +S  S S   +S  E S S S   +S  E  4x
|--------------------------------------------||
|-------------------------------------------o||
|--------------------------------------------||
|-4b5r(4)-----------4b5r(4)-----4-4b5r(4)----||
|-5---(5)-5-5-(5)-5-5---(5)-5-5-5-5---(5)-5-o||
|--------------------------------------------||


                                           1st Verse
  D5E5
  Gtr III
  S E.  +H.      +H..    +E        W          W
  | |    |        |       |
  / /    /        /       /

  Gtr II
  S E.  +H.      +W           +W                W   4x
|--------------|------------|-----------||----------||
|--------------|------------|-----------||o--------o||
|-7-9---(9)----|-(9)--------|-(9)-------||----------||
|-7-9---(9)----|-(9)--------|-(9)-------||----------||
|-5-7---(7)----|-(7)--------|-(7)-------||o--------o||
|---0---(0)----|-(0)--------|-(0)-------||----------||


     <
  H  S    +S  +S     +S  +S     +S  +S    +S
|----------------------------------------------|
|----------------------------------------------|
|----------------------------------------------|
|----4b5==(4)r(4)b5==(4)r(4)b5==(4)r(4)b5-(4)--|
|----------------------------------------------|
|----------------------------------------------|


  S E.  +Q    +Q.    +E     Q   Q   H
|-------------------------|--------------|
|-------------------------|--------------|
|-7-9---(9)---(9)----(9)\-|-x\-----------|
|-7-9---(9)---(9)----(9)\-|-x\-----------|
|-5-7---(7)---(7)----(7)\-|-x\-----------|
|---0---(0)---(0)----(0)--|--------------|


                      <
    W         3x H    S    +S  +S     +S  +S     +S  +S    +S
||------------||-----------------------------------------------|
||o----------o||-----------------------------------------------|
||------------||-----------------------------------------------|
||------------||------7b8==(7)r(7)b8==(7)r(7)b8==(7)r(7)b8-(7)-|
||o----------o||-----------------------------------------------|
||------------||-----------------------------------------------|


  S E. +Q  +Q. +E     Q  Q    H
|-------------------|-----------|
|-------------------|-----------|
|-7-----------------|-----------|
|-7-9--(9)-(9)-(9)\-|-x\--------|
|-5-9--(9)-(9)-(9)\-|-x\--------|
|---7--(7)-(7)-(7)\-|-x\--------|


                    1st Chorus
                     Gtrs II, III
                         PM  PM    PM    PM    PM  PM
  H    Q  S S E      S S S S S S S S S S S S S S S S
|----------------||----------------------------------|
|----------------||o---------------------------------|
|----------------||----------------------------------|
|---------x-x-x\-||----------------------------------|
|---------x-x-x\-||o-5-7---7---5-7---5-7---5-7---7---|
|---------x-x-x\-||--0-0-0-0-0-0-0-0-0-0-0-0-0-0-0-0-|


  S   +S  S S +S  S S   +S  E S S S   +S  E
|--------------------------------------------||
|-------------------------------------------o||
|--------------------------------------------||
|-4b5r(4)-----------4b5r(4)-----4-4b5r(4)----||
|-5---(5)-5-5-(5)-5-5---(5)-5-5-5-5---(5)-5-o||
|--------------------------------------------||


    Gtr II
        PM  PM    PM    PM    PM  PM
    S S S S S S S S S S S S S S S S
||----------------------------------|
||o---------------------------------|
||----------------------------------|
||----------------------------------|
||o-5-7---7---5-7---5-7---5-7---7---|
||--0-0-0-0-0-0-0-0-0-0-0-0-0-0-0-0-|
|
|   Gtr III
|       PM  PM    PM    PM    PM  PM
|   S S S S S S S S S S S S S S S S
||----------------------------------|
||o---------------------------------|
||----------------------------------|
||----------------------------------|
||o-5-7---7---5-7---5-7---5-7---7---|
||--0-0-0-0-0-0-0-0-0-0-0-0-0-0-0-0-|


  S   +S  S S +S  S S   +S  E S S S   +S   E
|------------------------------------------------||
|-----------------------------------------------o||
|------------------------------------------------||
|-4b5r(4)-----------4b5r(4)-----4-4b5r(4)--------||
|-5---(5)-5-5-(5)-5-5---(5)-5-5-5-5---(5)--5----o||
|------------------------------------------------||
|
| S   +S  S S +S  S S   +S  E S S S    S   S  S
|------------------------------------------------||
|-----------------------------------------------o||
|-----------------------------7s9-9s==12--12s11--||
|-4b5r(4)-----------4b5r(4)----------------------||
|-5---(5)-5-5-(5)-5-5---(5)-5-5s7-7s==10--10s=9-o||
|------------------------------------------------||


                                              2nd Verse
  E5(type 2)
  Gtr III
  W              +W              W                W
  |               |
  /               /

  Gtr II
  S E.   +H.     +H..   +E     S S E Q  H             W   4x
|--------------|-------------|-3-3---------||-------------||
|--------------|-------------|-3-3---------||o-----------o||
|-7-9----(9)---|-(9)----(9)\-|-------------||-------------||
|-7-9----(9)---|-(9)----(9)\-|-------------||-------------||
|-5-7----(7)---|-(7)----(7)\-|-------------||o-----------o||
|--------------|-------------|-------------||-------------||


       <
  H    S    +S  +S     +S  +S     +S  +S    +S
|-----------------------------------------------|
|-----------------------------------------------|
|-----------------------------------------------|
|------4b5==(4)r(4)b5==(4)r(4)b5==(4)r(4)b5-(4)-|
|-----------------------------------------------|
|-----------------------------------------------|


  S E. +Q   +Q.   +E     Q   Q  H        W     3x
|----------------------|-----------||----------||
|----------------------|-----------||o--------o||
|-7-9--(9)--(9)---(9)\-|-x\--------||----------||
|-7-9--(9)--(9)---(9)\-|-x\--------||----------||
|-5-7--(7)--(7)---(7)\-|-x\--------||o--------o||
|---0--(0)--(0)---(0)--|-----------||----------||


                                                Gtrs II, III
       <
  H    S    +S  +S     +S  +S     +S  +S    +S    S E. +H.        S E. +H.
|-----------------------------------------------|---------------|-------------|
|-----------------------------------------------|---------------|-------------|
|-----------------------------------------------|-7-------------|-------------|
|------7b8==(7)r(7)b8==(7)r(7)b8==(7)r(7)b8-(7)-|-7-9--(9)------|---9--(9)----|
|-----------------------------------------------|-5-9--(9)------|-0-9--(9)----|
|-----------------------------------------------|---7--(7)------|---7--(7)----|


                                   2nd Chorus
                                        PM  PM    PM    PM    PM  PM
  S E. +H.        S E. +H.          S S S S S S S S S S S S S S S S
|---------------|---------------||-----------------------------------|
|---------------|---------------||o----------------------------------|
|-2-2--(2)------|---2--(2)------||-----------------------------------|
|-2-2--(2)------|---2--(2)------||-----------------------------------|
|-0-0--(0)------|---0--(0)------||o-5-7---7---5-7---5-7---5-7---7----|
|---------------|-3-------------||--0-0-0-0-0-0-0-0-0-0-0-0-0-0-0-0--|


  S   +S  S S +S  S S   +S  E S S S   +S  E
|--------------------------------------------||
|-------------------------------------------o||
|--------------------------------------------||
|-4b5r(4)-----------4b5r(4)-----4-4b5r(4)----||
|-5---(5)-5-5-(5)-5-5---(5)-5-5-5-5---(5)-5-o||
|--------------------------------------------||


      PM----|     PM----|     PM|
  S S S S S S S S S S S S S S S S
|----------------------------------|
|----------------------------------|
|----------------------------------|
|-------------5-----------5--------|
|-5-7-----------7-----------7------|
|-0-0-0-0-0-0---0-0-0-0-0---0-0-0--|


  Gtr II
                                            PM----|     PM----|     PM|
  S   +S  E E S   +S  E S S S   +S  E   S S S S S S S S S S S S S S S S
|-------------------------------------|---------------------------------|
|-------------------------------------|---------------------------------|
|-------------------------------------|---------------------------------|
|-4b5r(4)-----4b5r(4)-----4-4b5r(4)---|-------------5-----------5-------|
|-5---(5)-5-5-5---(5)-5-5-5-5---(5)-5-|-5-7-----------7-----------7-----|
|-------------------------------------|-0-0-0-0-0-0---0-0-0-0-0---0-0-0-|
|
| Gtr III
|                                           PM----|     PM----|     PM|
| S   +S  E E S   +S  E S S S   +S  E   S S S S S S S S S S S S S S S S
|-------------------------------------|---------------------------------|
|-------------------------------------|---------------------------------|
|-------------------------------------|---------------------------------|
|-4b5r(4)-----4b5r(4)-----4-4b5r(4)---|-------------5-----------5-------|
|-5---(5)-5-5-5---(5)-5-5-5-5---(5)-5-|-5-7-----------7-----------7-----|
|-------------------------------------|-0-0-0-0-0-0---0-0-0-0-0---0-0-0-|


  S   +S  E E S   +S  E S S  S   +S   E
|------------------------------------------|
|------------------------------------------|
|------------------------------------------|
|-4b5r(4)-----4b5r(4)-----4--4b5r(4)-------|
|-5---(5)-5-5-5---(5)-5-5-5--5---(5)--5----|
|------------------------------------------|
|
| S   +S  E E S   +S  E S S  S    S   S  S
|------------------------------------------|
|------------------------------------------|
|---------------------------11s==12--12-12-|
|-4b5r(4)-----4b5r(4)----------------------|
|-5---(5)-5-5-5---(5)-5-5s9--9s==10--10-10-|
|------------------------------------------|


   Bridge
    Gtrs II, III
    S E S E  S S S S S S S S S S   S E S E S S a S S S S E  E
||-------------------------------|-----------------------------|
||o------------------------------|-----------------------------|
||--7-9----------7---------------|-----------------------------|
||--7-9----------7-7---5-7-7-7---|-5-7-7-7-7-------------------|
||o-5-7----------5-7---5-7-7-7---|-5-7-7-7-7---5s7-5---5-5--5--|
||------0-0--0-0---5---3-5-5-5-0-|-3-5-5-5-5-3-3s5-3---2-3--3--|


                                     1.
  Gtr II
  S E  S  E  S  S  S  S S S S S S S   S E  S E S S a S S  S E E  S
|-----------------------------------|-------------------------------||
|-----------------------------------|------------------------------o||
|-7-9--------------7----------------|-------------------------------||
|-7-9--------------7--7---5-7-7-7---|-5-7--7-7-7--------------------||
|-5-7--------------5--7---5-7-7-7---|-5-7--7-7-7---5s7-5----5-5--5-o||
|------0--0--0--0-----5---3-5-5-5-0-|-3-5--5-5-5-3-3s5-3----2-3--3--||
|
| Gtr III
| S E  T  T  S  S  E  S E S S S S S   S E.   E S S a S E.   S E.
|-----------------------------------|-------------------------------||
|-----------------------------------|------------------------------o||
|-7-9-12-12-12-12-12\-7-------------|-------------------------------||
|-7-9-12-12-12-12-12\-7-7-5-7-7-7---|-5-7----7-7---5s7s5----x-4-----||
|-5-7-----------------5-7-5-7-7-7---|-5-7----7-7-------------------o||
|-----------------------5-3-5-5-5-0-|-3-5----5-5-0-3s5s3----x-2-----||


  2.
  S E S E S S a S E  S E E    W      +H. +E. T T    E  E Q  H
|---------------------------|------|-------------|------------|
|---------------------------|------|-------------|--3---------|
|---------------------------|------|-----------0-|------------|
|-5-7-7-7-7-----------------|------|---------4---|------------|
|-5-7-7-7-7---5s7-5--5-5-5--|-2----|-(2)-(2)-----|------------|
|-3-5-5-5-5-3-3s5-3--2-3-3--|-0----|-(0)-(0)-----|------------|
|
| S S S S E E a S E.   S E.   W      +W            +W
|---------------------------|------|-------------|------------|
|---------------------------|------|-------------|------------|
|-------------7s9s7----7-8--|-9----|-(9)---------|-(9)--------|
|-5-7-7-7-7-7---------------|------|-------------|------------|
|-5-7-7-7-7-7-5s7s5----5-6--|-7----|-(7)---------|-(7)--------|
|-3-5-5-5-5-5---------------|------|-------------|------------|


        Interlude
         Gtr II
         <        < <       <   <
         ~~~~~~~~~              ~
  W      H    +E  E S   +S  E   H    +E   E    Q
|----||-----------------------|-------------------||
|----||o----------------------|------------------o||
|----||-----------------------|-------------------||
|----||-----------5-7b9r(7)-5-|-------------------||
|----||o-7----(7)-------------|-7----(7)-(7)\----o||
|----||-----------------------|-------------------||


   <          <  <          <                               <  <          <
   ~~~~~~~~~~
   H     +E   E  S     +S   E    E      A       +Q.    +E   E  S     +S   E
|-----------------------------|---------------------------------------------|
|-----------------------------|---------------------------------------------|
|------------12-14b16r(14)-12-|-14b16r(14)b16==(14)---(14)-12-14b16r(14)-12-|
|-14----(14)------------------|---------------------------------------------|
|-----------------------------|---------------------------------------------|
|-----------------------------|---------------------------------------------|


   <                    <   <          <
   S  E.    +Q    +E    E   S     +S   E
|-----------------------------------------|
|-----------------------------------------|
|----------------------12--14b16r(14)-12--|
|-14p12----(12)--(12)---------------------|
|-----------------------------------------|
|-----------------------------------------|


   <                  <    < <    <   <    < <      <    < <    <
                      ~~     ~~       ~~     ~~~~~~~~~~    ~~
   Q      +Q   H      Q.   E Q.   E   Q.   E H      Q.   E Q.   E
|-------------------|---------------|-------------|---------------|
|-------------------|---------------|-------------|---------------|
|-14b16r=(14)-------|---------------|-------------|---------------|
|-------------------|------5-7----9-|------5------|------5-7----9-|
|-------------------|-7-------------|-5------7----|-7-------------|
|-------------------|---------------|-------------|---------------|


  <    < <    <   <  <    <   <    <  <     <
  ~~     ~~~~~~~~    ~~       ~~      ~~
  Q.   E H    Q.  E  Q.   E   Q.   E  Q.    E
|-----------|---------------|-----------------|
|-----------|---------------|-----------------|
|-----------|---------------|-----------------|
|------5----|-------------7-|-9-------------9-|
|-5------7--|-----5--5------|------5--5-------|
|-----------|-7-------------|-----------------|


  <   <             <    <    <   <
  ~~            ~~~      ~~       ~~~~~~
  Q.  S    +S   Q.  E    Q.   E   Q   Q
|----------------------|----------------|
|----------------------|----------------|
|----------------------|----------------|
|-7-----------------9--|-7----9--10--12-|
|-----3b5==(3)r(3)-----|----------------|
|----------------------|----------------|


 Guitar Solo
  Gtr II
          PM   PM    PM       PM    PM  PM
   S   S  S  S S S S S   S  S S S S S S S
|-----------------------------------------|
|-----------------------------------------|
|-----------------------------------------|
|-----------------------------------------|
|--5---7-----7---5-7-----5--7---5-7---7---|
|--0---0--0--0-0-0-0-0---0--0-0-0-0-0-0-0-|
|
| Gtr III
|         TP             TP
|  S.  T  Q.            +H
|-----------------------------------------|
|--------12------------(12)---------------|
|-12--12-12------------(12)---------------|
|-12--12-12------------(12)---------------|
|-----------------------------------------|
|-----------------------------------------|


   S   +S   S   S  +S  S  S   +S   E  S  S    S   +S  E
|--------------------------------------------------------|
|--------------------------------------------------------|
|--------------------------------------------------------|
|--4b5r(4)----------------4b5r(4)--------4----4b5r(4)----|
|--5---(5)--5---5--(5)-5--5---(5)--5--5--5----5---(5)-5--|
|--------------------------------------------------------|
|
|  E.       S  +E   E     S    S   S  S  Q
|--------------------------------------------------------|
|-12-------12-(12)-12----12---12--12----14b15------------|
|-12-------12-(12)-12----12---12--12-14-14b15------------|
|--------------------------------------------------------|
|--------------------------------------------------------|
|--------------------------------------------------------|


          PM        PM       PM            PM        PM      PM
    S  S  S   S     S  S S   S  S   S      S    S  S S  S    S
|--------------------------------------------------------------|
|--------------------------------------------------------------|
|--------------------------------------------------------------|
|--------------------------------------------------------------|
|---5--7------7--------5-7------5---7-----------5--7----7------|
|---0--0--0---0-----0--0-0---0--0---0------0----0--0-0--0----0-|
|
|  +Q     E  +S        S    +S     +S      E       E    E
|--------------------------------------------------------------|
|-(14)-------------------------------------------------14b15---|
|-(14)---14-(14)b15---14---(14)---(14)b15-14b15---14---14b15---|
|--------------------------------------------------------------|
|--------------------------------------------------------------|
|--------------------------------------------------------------|


   S   +S  S   S  +S   S S   +S  E  S S  S   +S  E
|---------------------------------------------------|
|---------------------------------------------------|
|---------------------------------------------------|
|--4b5r(4)---------------4b5r(4)------4--4b5r(4)----|
|--5---(5)-5---5--(5)--5-5---(5)-5--5-5--5---(5)-5--|
|---------------------------------------------------|
|
|       ~~~~~~~~~~~~~~~~~~~~~~~~~~~~~~~~~~~~~~
|  T    S.    +E       Q      E     E    Q
|---------------------------------------------------|
|---------------------------------------------------|
|-12------------------------------------------------|
|------14----(14)-----14-----14----14---14----------|
|---------------------------------------------------|
|---------------------------------------------------|


          PM       PM            PM        PM     PM  PM
   S  S   S   S    S      S  S   S   S  S  S S  S S S S
|-------------------------------------------------------|
|-------------------------------------------------------|
|-------------------------------------------------------|
|-------------------------------------------------------|
|--5--7-------7-----------5--7-------5--7----5--7---7---|
|--0--0---0---0----0------0--0---0---0--0--0-0--0-0-0-0-|
|
|  S  E   S   S    E   S  S  S  +T   S.    E    E
|-27-----24-(24)\-------------------17\-----------------|
|----24\----------20\-18s17-17-(17)-------14S==12S======|
|-------------------------------------------------------|
|-------------------------------------------------------|
|-------------------------------------------------------|
|-------------------------------------------------------|


   S   +S   S  S +S  S S   +S  E S S S   +S  E
|----------------------------------------------|
|----------------------------------------------|
|----------------------------------------------|
|--4b5r(4)-------------4b5r(4)-----4-4b5r(4)---|
|--5---(5)--5--5-(5)-5-5---(5)-5-5-5-5---(5)-5-|
|----------------------------------------------|
|
|  Q        E     E  Q             Q
|----------10\---------------------------------|
|-10--------------8s29-------------------------|
|----------------------------------0-----------|
|----------------------------------0-----------|
|----------------------------------------------|
|----------------------------------------------|


         PM    PM        PM       PM       PM    PM
   S  S  S  S  S  S   S  S  S  S  S  S  S  S  S  S
|-----------------------------------------------------------------------|
|-----------------------------------------------------------------------|
|-----------------------------------------------------------------------|
|-----------------------------------------------------------------------|
|--5--7-----7-----5---7-----5--7-----5--7-----7-------------------------|
|--0--0--0--0--0--0---0--0--0--0--0--0--0--0--0--0----------------------|
|
|                 ~~~                ~~~      ~~~      ~~~    ~~~    ~~~
|  T  T  T  T  T  S.  T  T  T  T  T  S. X  X  S. X  X  S.  T  S.  T  S.
|---------------------------------------0h14h17--0h14h17---------14h17--|
|---------------------------------------------------------15h17---------|
|-------------12h14--------------12h14----------------------------------|
|-------12h14--------------12h14----------------------------------------|
|-12h14--------------12h14----------------------------------------------|
|-----------------------------------------------------------------------|


   S   +S   E     E   S   +S     E     S  S     S      S   S  S
|--------------------------------------------------------------------------|
|--------------------------------------------------------------------------|
|--------------------------------------------------------------------------|
|--4b5r(4)------------4b5r(4)-------------4-----4s=====5---5s=7------------|
|--5---(5)--5-----5---5---(5)----5-----5-----------------------------------|
|--------------------------------------------------------------------------|
|
|       ~~~       ~~~~~~~~~            ~~
|  T    S.  S     S  +S    S     E     E  E     S      T   T  S      T   T
|----------17b19-17-(17)--17b19-17b20-17-17b20-17b20r(17)s19-19b22r(19)s22-|
|-15h==17------------------------------------------------------------------|
|--------------------------------------------------------------------------|
|--------------------------------------------------------------------------|
|--------------------------------------------------------------------------|
|--------------------------------------------------------------------------|

[ Tab from: http://www.guitartabs.cc/tabs/m/metallica/outlaw_torn_tab_ver_2.html ]
    Gtrs II, III
     S    E S   E   S S S S S S S S S S   S E S E S S a S S S S E E
||--------------------------------------|---------------------------|
||o-------------------------------------|---------------------------|
||---7----9-------------7---------------|---------------------------|
||---7----9-------------7-7---5-7-7-7---|-5-7-7-7-7-----------------|
||o--5----7-------------5-7---5-7-7-7---|-5-7-7-7-7---5s7-5---5-5-5-|
||----------0---0---0-0---5---3-5-5-5-0-|-3-5-5-5-5-3-3s5-3---2-3-3-|
|
|   Gtr I
|    Q          Q       H                           W
||--22b25-----(22)\---------------------|---------------------------|
||o-------------------------------------|---------------------------|
||--------------------------------------|---------------------------|
||--------------------------------------|---------------------------|
||o-------------------------------------|---------------------------|
||--------------------------------------|---------------------------|


                                         1.
  Gtr II
  S E  S     E     S  S S S S S S S S S   S E  S E S S a S E  S E   E
|---------------------------------------|-------------------------------||
|---------------------------------------|------------------------------o||
|-7-9-------------------7---------------|-------------------------------||
|-7-9-------------------7-7---5-7-7-7---|-5-7--7-7-7--------------------||
|-5-7-------------------5-7---5-7-7-7---|-5-7--7-7-7---5s7-5--5-5---5--o||
|------0-----0-----0--0---5---3-5-5-5-0-|-3-5--5-5-5-3-3s5-3--2-3---3---||
|
| Gtr III
| S E  T  T  S  S  E    S S S S S S S S   S E.   E S S a S E.     S E.
|---------------------------------------|-------------------------------||
|---------------------------------------|------------------------------o||
|-7-9-12-12-12-12-12\---7---------------|-------------------------------||
|-7-9-12-12-12-12-12\---7-7---5-7-7-7---|-5-7----7-7---5s7s5------x-4---||
|-5-7-------------------5-7---5-7-7-7---|-5-7----7-7-------------------o||
|-------------------------5---3-5-5-5-0-|-3-5----5-5-0-3s5s3------x-2---||


  2.
  S E   S E S S a S E  S E   E     W
|-------------------------------|----------------|
|-------------------------------|----------------|
|-------------------------------|----------------|
|-5-7---7-7-7-------------------|----------------|
|-5-7---7-7-7---5s7-5--5-5---5--|--2-------------|
|-3-5---5-5-5-3-3s5-3--2-3---3--|--0-------------|
|
| S S S S E E   a S E.     S E.    S  S E Q   H
|-------------------------------|-^0-!0----------|
|-------------------------------|-^0-!0----------|
|---------------7s9s7------7-8--|-^0-!0----------|
|-5-7-7-7-7-7-------------------|----------------|
|-5-7-7-7-7-7---5s7s5------5-6--|----------------|
|-3-5-5-5-5-5-------------------|----------------|


  +W                +W                 W
|-----------------|-----------------|-------------|
|-----------------|-----------------|-------------|
|-----------------|-----------------|-------------|
|-----------------|-----------------|-------------|
|-(2)-------------|-(2)-------------|-------------|
|-(0)-------------|-(0)-------------|-------------|
|
|  S   S E Q  H      S   S E Q  H      S  S E Q H
|-^0--!0----------|-^0--!0----------|-^0-!0-------|
|-^0--!0----------|-^0--!0----------|-^0-!0-------|
|-^0--!0----------|-^0--!0----------|-^0-!0-------|
|-----------------|-----------------|-------------|
|-----------------|-----------------|-------------|
|-----------------|-----------------|-------------|


 Outro
   <             < <       <
   ~~
   H         +E  E S   +E  S
|----------------------------|
|----------------------------|
|----------------------------|
|----------------5-7b9r(7)-5-|
|--7---------(7)-------------|
|----------------------------|
|
|  S  S E Q      H
|-^0-!0----------------------|
|-^0-!0----------------------|
|-^0-!0----------------------|
|----------------------------|
|----------------------------|
|----------------------------|


   <                        <             < <       <
   ~~                       ~~
   H         +E   E   Q     H         +E  E S   +E  S
|------------------------|-----------------------------|
|------------------------|-----------------------------|
|------------------------|-----------------------------|
|------------------------|----------------5-7b9r(7)-5--|
|--7---------(7)-(7)\----|--7---------(7)--------------|
|------------------------|-----------------------------|
|
|  S  S E Q       H         S  S E Q        H
|-^0-!0------------------|-^0-!0-----------------------|
|-^0-!0------------------|-^0-!0-----------------------|
|-^0-!0------------------|-^0-!0-----------------------|
|------------------------|-----------------------------|
|------------------------|-----------------------------|
|------------------------|-----------------------------|


   <
   S   +E.      +Q   +Q.   +E
|-------------------------------|
|-------------------------------|
|-------------------------------|
|--7b9r(7)b9====(7)--(7)---(7)\-|
|-------------------------------|
|-------------------------------|
|
|  S    S     E  Q    H
|-^0---!0-----------------------|
|-^0---!0-----------------------|
|-^0---!0-----------------------|
|-------------------------------|
|-------------------------------|
|-------------------------------|


                                             ~~
   S  S  S S  S  S S  S  S S  S  S  S     S  E
|-----------------------------------------------|
|-----------------------------------------------|
|-----------------------------------------------|
|-----------------------------------------------|
|-----------------------------------------------|
|--0S10-12-0S10-12-0S10-12-0S10-12-12b15-12-10--|
|
|  S  S  E    Q          H
|-^0-!0-----------------------------------------|
|-^0-!0-----------------------------------------|
|-^0-!0-----------------------------------------|
|-----------------------------------------------|
|-----------------------------------------------|
|-----------------------------------------------|


                                             ~~
   S  S  S S  S  S S  S  S S  S  S  S     S  E
|----------------------------------------------|
|----------------------------------------------|
|----------------------------------------------|
|----------------------------------------------|
|----------------------------------12b14-12-10-|
|--0S10-12-0S10-12-0S10-12-0S10-12-------------|
|
|  S  S  E    Q          H
|-^0-!0----------------------------------------|
|-^0-!0----------------------------------------|
|-^0-!0----------------------------------------|
|----------------------------------------------|
|----------------------------------------------|
|----------------------------------------------|


                                             ~~
   S  S  S S  S  S S  S  S S  S  S  S     S  E
|-----------------------------------------------|
|-----------------------------------------------|
|-----------------------------------------------|
|-----------------------------------------------|
|-----------------------------------------------|
|--0S10-12-0S10-12-0S10-12-0S10-12-12b15-12-10--|
|
|  S  S  E    Q          H
|-^0-!0-----------------------------------------|
|-^0-!0-----------------------------------------|
|-^0-!0-----------------------------------------|
|-----------------------------------------------|
|-----------------------------------------------|
|-----------------------------------------------|


   W
                                                   ~~~
   S  S  S S  S  S S  S  S S  S  S  S     S  T  T  S
|----------------------------------------------------|
|----------------------------------------------------|
|----------------------------------------------------|
|----------------------------------------------------|
|----------------------------------12b14-12-10h12p10-|
|--0S10-12-0S10-12-0S10-12-0S10-12-------------------|
|
|  S  S  E    Q          H
|-^0-!0----------------------------------------------|
|-^0-!0----------------------------------------------|
|-^0-!0----------------------------------------------|
|----------------------------------------------------|
|----------------------------------------------------|
|----------------------------------------------------|


  E5open                  F5
  Gtr III
    H                      H
    |                      |
    /                      /

  Gtr II
 ~~~~~~                                        ~~
   +S   S  S S  S  S S  S  S S  S  S  S     S  E
|------------------------------------------------|
|------------------------------------------------|
|------------------------------------------------|
|------------------------------------------------|
|-(10)-------------------------------------------|
|------10-12-0S10-12-0S10-12-0S10-12-12b15-12-10-|
|
|                       W
|------------------------------------------------|
|------------------------------------------------|
|------------------------------------------------|
|------------------------------------------------|
|------------------------------------------------|
|------------------------------------------------|


  F#5                  G5
  Gtr III
  H                     H
  |                     |
  /                     /

  Gtr II
                                            ~~
  S  S  S S  S  S S  S  S S  S  S  S     S  E
|---------------------------------------------|
|---------------------------------------------|
|---------------------------------------------|
|---------------------------------------------|
|---------------------------------12b14-12-10-|
|-0S10-12-0S10-12-0S10-12-0S10-12-------------|


  E5open               F5
  H                     H
  |                     |
  /                     /

                                            ~~
  S  S  S S  S  S S  S  S S  S  S  S     S  E
|----------------------------------------------|
|----------------------------------------------|
|----------------------------------------------|
|----------------------------------------------|
|----------------------------------------------|
|-0S10-12-0S10-12-0S10-12-0S10-12-12b15-12-10--|


  F#5             G5
  H               H
  |               |
  /               /

                                               ~~
  S  S  S S  S  S S  S  S  S  S       S  S  S  E
|------------------------------------------------|
|------------------------------------------------|
|------------------------------------------------|
|------------------------------------------------|
|-------------------------10-10b10.5----10-12-10-|
|-0S10-12-0S10-12-0s10-12------------12----------|


  E5open                           F5
    H                               H
    |                               |
    /                               /

                        ~~
    S  S  S  S  S       E  T  T  S  S  S  S     +S   S  S  T  T
|---------------------------------------------------------------|
|---------------------------------------------------------------|
|---------------------------------------------------------------|
|---------------------------------------------------------------|
|--------------10b10.5----------------10-12b14-(12)-12-10h12p10-|
|-/10-12-12-12---------12-12-12-10-12---------------------------|


  F#5                        G5
    H                         H
    |                         |
    /                         /

                        ~~
    S  S  S  S  S       E  T  T  S  S  S  S     +S   S  S  S
|------------------------------------------------------------|
|------------------------------------------------------------|
|------------------------------------------------------------|
|------------------------------------------------------------|
|--------------10b10.5----------------10-12b14-(12)-12-10h12-|
|-/10-12-12-12---------12-12-12-10-12------------------------|


  E5open                           F5
    H                               H
    |                               |
    /                               /

                        ~~
    S  S  S  S  S       E  T  T  S  S  S  S  S  S  S  T  T
|-----------------------------------------------------------|
|--------------12b12.5--------------------------------------|
|--------------12b12.5----------------12-14-14-14-12h14p12--|
|-/12-14-14-14---------14-14-14-12-14-----------------------|
|-----------------------------------------------------------|
|-----------------------------------------------------------|


  F#5                              G5
    H                               H
    |                               |
    /                               /

                        ~~
    S  S  S  S  S       E  T  T  a  S  S  S       S  S  S  E
|-------------------------------------------------------------|
|--------------12b12.5----------------12-12b12.5----12-14-12\-|
|--------------12b12.5----------------12-12b12.5----12-14-12\-|
|-/12-14-14-14---------14-14-14-12h14------------14-----------|
|-------------------------------------------------------------|
|-------------------------------------------------------------|


  E5open               F5
  S  S  S S  S  S S  S  S S  S  S  S     S  S  S
  |  |  |    |  |    |  | |  |     |     |     |
  /  /  /    /  /    /  / /  /     /     /     /

                                            ~~
  S  S  S S  S  S S  S  S S  S  S  S     S  E
|-------------------------------------------------|
|-------------------------------------------------|
|-------------------------------------------------|
|-------------------------------------------------|
|-------------------------------------------------|
|-0S10-12-0S10-12-0S10-12-0S10-12-12b15-12-10-----|


  F#5                  G5
  S  S  S S  S  S S  S  S S  S  S  S     S     S  S
  |  |  |    |  |    |  | |  |     |     |        |
  /  /  /    /  /    /  / /  /     /     /        /

  S  S  S S  S  S S  S  S S  S  S  T  T  T  T  S  S
|---------------------------------------------------|
|---------------------------------------------------|
|---------------------------------------------------|
|---------------------------------------------------|
|---------------------------------10h12p10----10-12-|
|-0S10-12-0S10-12-0S10-12-0S10-12----------12-------|


  E5open               F5
  S  S  S S  S  S S  S  S S  S  S  S     S  S S
  |  |  |    |  |    |  | |  |     |     |    |
  /  /  /    /  /    /  / /  /     /     /    /

                                            ~~
  S  S  S S  S  S S  S  S S  S  S  S     S  E
|-----------------------------------------------|
|-----------------------------------------------|
|-----------------------------------------------|
|-----------------------------------------------|
|-----------------------------------------------|
|-0S10-12-0S10-12-0S10-12-0S10-12-12b15-12-10---|


  F#5                  G5
  H                     H
  |                     |
  /                     /

  S  S  S S  S  S S  S  S  T  T     +T   T  S     T  S     T  S     S
|---------------------------------------------------------------------|
|---------------------------------------------------------------------|
|---------------------------------------------------------------------|
|---------------------------------------------------------------------|
|----------------------10-12-10b12-(10)-12-10b12-12-10b12-12-10b12----|
|-0S10-12-0S10-12-0S12---------------------------------------------12-|


  E5open               F5
  S  S  S S  S  S S  S  S S  S  S  S     S  S S
  |  |  |    |  |    |  | |  |     |     |    |
  /  /  /    /  /    /  / /  /     /     /    /

                                            ~~
  S  S  S S  S  S S  S  S S  S  S  S     S  E
|------------------------------------------------|
|------------------------------------------------|
|------------------------------------------------|
|------------------------------------------------|
|------------------------------------------------|
|-0S10-12-0S10-12-0S10-12-0S10-12-12b15-12-10----|


  F#5                  G5
  S  S  S S  S  S S  S  S S  S  S  S      S      S  S
  |  |  |    |  |    |  | |  |     |      |         |
  /  /  /    /  /    /  / /  /     /      /         /

                                                    ~~
  S  S  S S  S  S S  S  S S  S  S  S      T  T   S  S
|-----------------------------------------------------|
|-----------------------------------------------------|
|-----------------------------------------------------|
|-----------------------------------------------------|
|---------------------------------12b14==12-12r-12-10-|
|-0S10-12-0S10-12-0S10-12-0S10-12---------------------|


  E5open               F5
  S  S  S S  S  S S  S  S S  S  S  S     S  S S
  |  |  |    |  |    |  | |  |     |     |    |
  /  /  /    /  /    /  / /  /     /     /    /

                                            ~~
  S  S  S S  S  S S  S  S S  S  S  S     S  E
|------------------------------------------------|
|------------------------------------------------|
|------------------------------------------------|
|------------------------------------------------|
|------------------------------------------------|
|-0S10-12-0S10-12-0S10-12-0S10-12-12b15-12-10----|


  F#5             G5
  E  E  S S  S  S S  S  S  S       S  S  S  S
  |  |  | |  |  | |  |  |  |       |  |  |  |
  /  /  / /  /  / /  /  /  /       /  /  /  /

  S  S  S S  S  S S  T  T  S       T  T  S  T  T  S  S  a  E
|-------------------------------------------------------------|
|-------------------------------------------------------------|
|-------------------------------------------------------------|
|-------------------------------------------------------------|
|-------------------10-10-10b10.5-------------------10--------|
|-0S10-12-0S10-12-0---------------12-12-12-10-10-10----10h12\-|


  E5open             F5
    E  E  S  S  S  S  S       S  S    S  S  S  S      S
    |  |  |  |  |  |  |       |  |    |  |  |  |      |
    /  /  /  /  /  /  /       /  /    /  /  /  /      /

                              ~~
    S  S  T  T  T  T  S       E  S    S  S  S  S     +S   S  S  T  T
|---------------------------------------------------------------------|
|---------------------------------------------------------------------|
|-/12-12--------------------------------------------------------------|
|-/12-12-14p12--------------------------------------------------------|
|--------------14p12s10b10.5---------------10-12b14-(12)-12-10h12p10--|
|----------------------------12-12\-/10-12----------------------------|


  F#5                      G5
    E     E     S  S  S  S  S    S  S  S  S      S   S  S
    |     |     |  |  |  |  |    |  |  |  |      |   |  |
    /     /     /  /  /  /  /    /  /  /  /      /   /  /

                         ~~                                ~~~
    S  S  T  T  T  T  S  E  S    S  S  S  S     +S   S  T  S.
|-------------------------------------------------------------|
|-------------------------------------------------------------|
|-/12-12------------------------------------------------------|
|-/12-12-14p12------------------------------------------------|
|--------------14p12s10---------------10-12b14-(12)-12-10h12--|
|-----------------------12-12\-/10-12-------------------------|


  E5open                  F5
    E  E  S  S  S       S  S  S  S  S  S  S  S  S
    |  |  |  |  |       |  |  |  |  |  |  |  |  |
    /  /  /  /  /       /  /  /  /  /  /  /  /  /

                        ~~
    S  S  S  S  S       E  T  T  T  T  T  T  S  T  T  +T   T  S  S  S
|----------------------------------------------------------------------|
|--------------12b12.5----------------------12-12-14-(14)-14-14-14-12--|
|--------------12b12.5----------------------12-12-14-(14)-14-14-14-12--|
|-/12-14-14-14---------14-14-14-12h14-14-14----------------------------|
|----------------------------------------------------------------------|
|----------------------------------------------------------------------|


  F#5                                     G5
   E     E             S   S   S  S       S S  S  S           S  S  S S
   |     |             |   |   |  |       | |  |  |           |  |  | |
   /     /             /   /   /  /       / /  /  /           /  /  / /

   S  S  S  S  S       S  +T   T  S  T  T T T  T  T  T  T  T  T  T  T S S
|-----------------------------------12-------------------------------------|
|-------------12b12.5------------12----12-x-x-12-12----12-12-12-12-12-x-0--|
|-------------12b12.5------------12----12-x-x-12-12----12-12-12-12-12-x----|
|-12-14-14-14---------14-(14)-14-------------------------------------------|
|--------------------------------------------------------------------------|
|---------------------------------------------------12---------------------|


  E5open          F5
  E  E  S S  S  S S  S  S S  S  S  S     S
  |  |  | |  |  | |  |  | |  |  |  |     |
  /  /  / /  /  / /  /  / /  /  /  /     /

                                            ~~
  S  S  S S  S  S S  S  S S  S  S  S     S  E
|----------------------------------------------|
|----------------------------------------------|
|----------------------------------------------|
|----------------------------------------------|
|----------------------------------------------|
|-0S10-12-0S10-12-0S10-12-0S10-12-12b15-12-10--|


  F#5             G5
  E  E  S S  S  S S  S  S S  S  S  S     S
  |  |  | |  |  | |  |  | |  |  |  |     |
  /  /  / /  /  / /  /  / /  /  /  /     /

                                            ~~
  S  S  S S  S  S S  S  S S  S  S  S     S  E
|---------------------------------------------*|
|---------------------------------------------*|
|---------------------------------------------*|
|---------------------------------------------*|
|---------------------------------12b14-12-10-*|
|-0S10-12-0S10-12-0S10-12-0S10-12-------------*|




--------------------------------------------------------------------------------


Duration Legend
---------------
W - whole; H - half; Q - quarter; E - 8th; S - 16th; T - 32nd; X - 64th; a - acciaccatura
+ - note tied to previous; . - note dotted; .. - note double dotted
Uncapitalized letters represent notes that are staccato (1/2 duration)
Irregular groupings are notated above the duration line
Duration letters will always appear directly above the note/fret number it represents the
duration for.  Duration letters with no fret number below them represent rests.  Multi-
bar rests are notated in the form Wxn, where n is the number of bars to rest for.  Low
melody durations appear below the staff

Tablature Legend
----------------
 h   - hammer-on
 p   - pull-off
 b   - bend
 pb  - pre-bend
 r   - bend release (if no number after the r, then release immediately)
 /\  - slide into or out of (from/to "nowhere")
 s   - legato slide
 S   - shift slide
 - natural harmonic
[n]  - artificial harmonic
n(n) - tapped harmonic
 ~   - vibrato
 tr  - trill
 T   - tap
 TP  - trem. picking
 PM  - palm muting
\n/  - tremolo bar dip; n = amount to dip
 \n  - tremolo bar down
 n/  - tremolo bar up
/n\  - tremolo bar inverted dip
 =   - hold bend; also acts as connecting device for hammers/pulls
  - volume swell (louder/softer)
 x   - on rhythm slash represents muted slash
 o   - on rhythm slash represents single note slash

Misc Legend
-----------
 |  - bar
||  - double bar
||o - repeat start
o|| - repeat end
*|  - double bar (ending)
 :  - bar (freetime)
 $  - Segno
 &  - Coda
Tempo markers -  = BPM(8/16=s8/s16), where s8 = swing 8ths, s16 = swing 16ths



--------------------------------------------------------------------------------

** Generated using Power Tab Editor by Brad Larsen: The Official Power Tab Web Site
Comments