Metallica - Orion Chords & Tabs

 

Orion Chords & Tabs

Metallica Chords & Tabs

Version: 2 Type: Tab 8 ratings
1 star 2 stars 3 stars 4 stars 5 stars
comments

Orion Tab

   
#----------------------------------PLEASE NOTE---------------------------------#
#This file is the author's own work and represents their interpretation of the #
#song. You may only use this file for private study, scholarship, or research. #
#------------------------------------------------------------------------------##

Title: 		Orion
Band: 		Metallica
Album:		Master of Puppets
Words:		James Hetfield, Lars Ulrich and Cliff Burton
Music:		James Hetfield, Lars Ulrich and CLiff Burton
Tempo:		-------
Transcribed By:	"DaMatrix"
My Email:	robertleeuwestein@yahoo.com 
Original site:	http://members.tripod.co.uk/robertleeuwestein/
		(check for more quality tabs  )
Last edit:	31-okt-2001
Parts:		INTRO, MAIN RIFFS, INTERLUDE, BASS PART, SLOWER PART, FIRST SOLO, SECOND SOLO, THIRTH SOLO, OUTRO
Missing:	Nothing
Other tabs 	
made by me:	Metallica - The Unforgiven

Orion is the second instrumental song. Personally I think that Orion is better than 
the first instrumental song (The Call of Ktulu). The main riffs aren't hard to play.
The solo's are a bit harder then the solo's of The Unforgiven, but I wouldn't rate them as
hard.If you think that there are any 'errors' in this tab, then mail me the 
correction. I would really appreciate that.

I you want to add this tab on your site then please leave the tab as it is. If you are not sure
that you have the originial tab mail me. Also, if somebody is using my tab then please mail me.
You can always get the newest verion of the tab at my website.

If you see any white lines between the guitar lines, then make sure you resolution is 
1024 x 768 or greater and that you are using Notepad.

Well, let's play this song.

INTRO***************************************************************************

Gtr I (E A D G B E) - 'Synth. arr. for gtr.'

   (fade in, about 45 seconds)
   4/4
    Gtr I
    W          W           W          W      8x
||----------|------------|----------|--------||
||o---------|------------|----------|-------o||
||----------|------------|-4--------|--------||
||----------|------------|----------|-4------||
||o-7-------|--7---------|-5--------|-6-----o||
||--0-------|-(0)--------|----------|--------||


MAIN RIFFS**********************************************************************

Gtr I (E A D G B E) - 'Distortion'

Medium Rock 128

      PM|   PM|   PM    PM|   PM|   PM    PM|   PM|
    E E E E E E E E   E E E E E E E E   E E E E E E E E
||------------------|-----------------|-----------------|
||o-----------------|-----------------|-----------------|
||------------------|-----------------|-----------------|
||--5-----5-----5---|-4-----5-----5---|-4-----4-----4-4-|
||o-7-----7-----7---|-7-----7-----7---|-5-----5-----5-5-|
||----0-0---0-0---0-|---0-0---0-0---0-|---7-7---7-7-----|


    PM|   PM|
  E E E E E E E E  6x     S S S S E S S S S E S S S S
|------------------||-||------------------------------|
|-----------------o||-||o-----------------------------|
|------------------||-||----------2---------4---------|
|-4-----4-----4-4--||-||--2-2-2-2---2-2-2-2---2-2-2-2-|
|-6-----6-----6-6-o||-||o-----------------------------|
|---7-7---7-7------||-||------------------------------|


  E S S S S E S S E S S E   S S S S E S S S S E S S S S
|-------------------------|-----------------------------|
|-------------------------|-----------------------------|
|-5-----------------------|---------5---------4---------|
|---2-2-2-2-2-2-2-3-3-3-2-|-2-2-2-2---2-2-2-2---2-2-2-2-|
|-------------------------|-----------------------------|
|-------------------------|-----------------------------|

  (play this the 1st, 2th     (play this the 4th time)
   and 3th time, and repeat)   

  1.,2.,3.                    4.
  E S S S S E S S E S S E     E S S S S E  S S E  S S E
|--------------------------||---------------------------|
|-------------------------o||---------------------------|
|-2------------------------||-2-------------------------|
|---2-2-2-2-2-2-2-3-3-3-2--||---2-2-2-2-2--2-2-3--3-3-2-|
|-------------------------o||---------------------------|
|--------------------------||-----------0--0-0-1--1-1-0-|


  E  S S E S S S S E S S S S   E S S S S E S S E S S E
|----------------------------|-------------------------|
|----------------------------|-------------------------|
|-2\-----2---------4---------|-5-----------------------|
|--------2---------4---------|-5-----------------------|
|--------0---------2---------|-3-----------------------|
|-0\-0-0---0-0-0-0---0-0-0-0-|---0-0-0-0-0-0-0-1-1-1-0-|


  E S S E S S S S E S S S S   E S S S S E S S E S S E
|---------------------------|-------------------------|
|---------------------------|-------------------------|
|-------5---------4---------|-2-----------------------|
|-------5---------4---------|-2-----------------------|
|-------3---------2---------|-0-----------------------|
|-0-0-0---0-0-0-0---0-0-0-0-|---0-0-0-0-0-0-0-1-1-1-0-|


    E S S E S S S S E S S S S   E S S S S E S S E S S E
||----------------------------|-------------------------|
||o---------------------------|-------------------------|
||--------2---------4---------|-5-----------------------|
||--------2---------4---------|-5-----------------------|
||o-------0---------2---------|-3-----------------------|
||--0-0-0---0-0-0-0---0-0-0-0-|---0-0-0-0-0-0-0-1-1-1-0-|


  E S S E S S S S E S S S S   E S S S S E S S E S S E  3x
|---------------------------|--------------------------||
|---------------------------|-------------------------o||
|-------5---------4---------|-2------------------------||
|-------5---------4---------|-2------------------------||
|-------3---------2---------|-0-----------------------o||
|-0-0-0---0-0-0-0---0-0-0-0-|---0-0-0-0-0-0-0-1-1-1-0--||


    E E E E E E E E   E E E E E E E E   E E E E E E E E
||------------------|-----------------|-----------------|
||o-----------------|-----------------|-----------------|
||------------------|-----------------|-----------------|
||--5-----5-----5---|-4-----5-----5---|-4-----4-----4-4-|
||o-7-----7-----7---|-7-----7-----7---|-5-----5-----5-5-|
||----0-0---0-0---0-|---0-0---0-0---0-|---7-7---7-7-----|


  E E E E E E E E     
|------------------||
|-----------------o||
|------------------||
|-4-----4-----4-4--||
|-6-----6-----6-6-o||
|---7-7---7-7------||


INTERLUDE************************************************************************

Gtr I (E A D G B E)  - 'First almost clean, then distortion'
Gtr II (E A D G B E) - 'Distortion'

Medium Rock 128

    Gtr I
            PM           ~~~          PM                       ~
    |-3-|     |-3-|           |-3-|     |-3-|
  Q S S S E e S S S Q   +Q    S S S E e S S S Q   E  E E E E E Q
|---------------------|-------------------------|-----------------|
|---------------------|-------------------------|-----------------|
|---------------------|-------------------------|-----------------|
|---4h5p4---4-4h5p4---|-------4h5p4---4-4h5p4---|--------5-5-4----|
|---------7---------7-|-(7)---------7---------7-|-7------------5--|
|---------------------|-------------------------|-----------------|
|
|
| Gtr II
| E E E E E E E   E     E E E E E E E     E       E E E E E E E E
|---------------------|-------------------------|-----------------|
|---------------------|-------------------------|-----------------|
|---------------------|-------------------------|-----------------|
|-5-----5-----5-------|-4-----5-----5-----------|-4-----4-----4-4-|
|-7-----7-----7-------|-7-----7-----7-----------|-5-----5-----5-5-|
|---0-0---0-0-----0---|---0-0---0-0-------0-----|---7-7---7-7-----|


  Gtr I
                                 PM           ~          PM
                         |-3-|     |-3-|         |-3-|     |-3-|
  Q  E E E E Q      +Q   S S S E e S S S Q    Q  S S S E e S S S Q
|-----------------|-------------------------|----------------------|
|-----------------|-------------------------|----------------------|
|-----------------|-------------------------|----------------------|
|------5-5-4-4----|-(4)--4h5p4---4-4h5p4----|----4h5p4---4-4h5p4---|
|-----------------|------------7---------7--|-7--------7---------7-|
|-----------------|-------------------------|----------------------|
|
|
| Gtr II
| E E E E E E E E   E E E E E E E E           E E E E E E E E
|-----------------|-------------------------|----------------------|
|-----------------|-------------------------|----------------------|
|-----------------|-------------------------|----------------------|
|-4-----4-----4-4-|-5-----5-----5-----------|-4-----5-----5--------|
|-6-----6-----6-6-|-7-----7-----7-----------|-7-----7-----7--------|
|---7-7---7-7-----|---0-0---0-0---0---------|---0-0---0-0---0------|


  Gtr I
  Q  E E E E Q        Q  E E E E Q    A E E E E E E E  E
|-----------------|-----------------|--------------------|
|-----------------|-----------------|--------------------|
|-----------------|-----------------|--------------------|
|------5-5-4------|------5-5-4-4----|-4S2S5-5S7-7S9-9S12-|
|------------5----|-----------------|--------------------|
|-----------------|-----------------|--------------------|
|
|
| Gtr II
| E E E E E E E E   E E E E E E E E   E E E E E E E E
|-----------------|-----------------|--------------------|
|-----------------|-----------------|--------------------|
|-----------------|-----------------|--------------------|
|-4-----4-----4-4-|-4-----4-----4-4-|-5-----5-----5------|
|-5-----5-----5-5-|-6-----6-----6-6-|-7-----7-----7------|
|---7-7---7-7-----|---7-7---7-7-----|---0-0---0-0---0----|


  Gtr I
   E  E  E  E  +E   E  E  E        +Q    E  E  E  E  E  A  E    +E   E  H     E  E
|-------------------------------|----------------------------|---------------------|
|-------------------------------|----------------------------|------------------15-|
|---------------------12-14b16==|-(14)--14-14-12-12-11-11h12-|-(12)-11-------12----|
|-12S14-14-14-(14)-14-----------|----------------------------|---------12----------|
|-------------------------------|----------------------------|---------------------|
|-------------------------------|----------------------------|---------------------|
|
|
| Gtr II
| E E E E E E E E                 E E E E E E E E              E E E E E E E E
|-------------------------------|----------------------------|---------------------|
|-------------------------------|----------------------------|---------------------|
|-------------------------------|----------------------------|---------------------|
|-4-----5-----5-----------------|-4-----4-----4-4------------|-4-----4-----4-4-----|
|-7-----7-----7-----------------|-5-----5-----5-5------------|-6-----6-----6-6-----|
|---0-0---0-0---0---------------|---7-7---7-7----------------|---7-7---7-7---------|


  Gtr I
                   ~~~~                                  ~~~~~
   Q     E     E  +Q   E  E    E      S  S  E      S  S  Q     E  E    S  S  S  S  S  S  S  S  S  S  S  S  T  T  S  S  S
|---------------------------|------------------------------------12-|-15-14-12-15-14-12-15p14p12-15-14-12-15p14p12-15p12-|
|-15---------------------12-|-15b17==15-15-15b17==15-15-15b17-15----|----------------------------------------------------|
|-14b16-14b16-14-(14)-14----|---------------------------------------|----------------------------------------------------|
|---------------------------|---------------------------------------|----------------------------------------------------|
|---------------------------|---------------------------------------|----------------------------------------------------|
|---------------------------|---------------------------------------|----------------------------------------------------|
|
|
| Gtr II
| E E E E E E E E   E E E E E E E E   E E E E E E E E
|---------------------------|---------------------------------------|----------------------------------------------------|
|---------------------------|---------------------------------------|----------------------------------------------------|
|---------------------------|---------------------------------------|----------------------------------------------------|
|-5-----5-----5-------------|-4-----5-----5-------------------------|-4-----4-----4-4------------------------------------|
|-7-----7-----7-------------|-7-----7-----7-------------------------|-5-----5-----5-5------------------------------------|
|---0-0---0-0---0-----------|---0-0---0-0---0-----------------------|---7-7---7-7----------------------------------------|


  Gtr I
                       ~~                                                                 ~~~
   Q      Q      E     E E  E       +Q    Q      S  S  E  E  E        +E   E  S  S  E  E  Q.
|-17b19--17b19--17b19-17---------|---------------------------------|---------------------------|
|--------------------------17b19-|-(17)--17b19--17p15----15-17b19==|=(17)-17-17p15----15-------|
|--------------------------------|--------------------14-----------|---------------16----16----|
|--------------------------------|---------------------------------|---------------------------|
|--------------------------------|---------------------------------|---------------------------|
|--------------------------------|---------------------------------|---------------------------|
|
|
| Gtr II
|                                        PM--|                             PM--|
| E E E E E E E E                  E E E E E E E E                   E E E E E E E E
|--------------------------------|---------------------------------|---------------------------|
|--------------------------------|---------------------------------|---------------------------|
|--------------------------------|-4-4-4-------1-------------------|-4-4-4-------1-------------|
|-4-----4-----4-4----------------|-4-4-4-------2-------------------|-4-4-4-------2-------------|
|-6-----6-----6-6----------------|-2-2-2-2-2-2-2-0-----------------|-2-2-2-2-2-2-2-0-----------|
|---7-7---7-7--------------------|---------------------------------|---------------------------|


  Gtr I                                                         ~~~~~~~
   S  S  S  S  S  S  S  S  S  S  S  S  S  S  E    Q      E     E  +Q    E  E
|----------------------------------------------|-17b19--17b19-17-(17)--14-15-|
|----15-19----15-19----15-19----15-19----15-19-|-----------------------------|
|-16-------16-------16-------16-------16-------|-----------------------------|
|----------------------------------------------|-----------------------------|
|----------------------------------------------|-----------------------------|
|----------------------------------------------|-----------------------------|
|
|
| Gtr II
|          PM----|                                     PM--|
| E  E  E  E  E  E  E  E                         E E E E E E E E
|----------------------------------------------|-----------------------------|
|----------------------------------------------|-----------------------------|
|----------------------------------------------|-----------------------------|
|-4--4--4-----------4--------------------------|-------------2---------------|
|-0--0--0--0--0--0--0--------------------------|-4-4-4-------0-0-------------|
|----------------------0-----------------------|-2-2-2-2-2-2-----------------|


  Gtr I
   E  E  E  E  S  S  S  S  S  S S  S   S S S S S S S S Q  S S E
|-17-15-14-15-14h15-12h14-10h12-8h10-|-7h8-5h7-3h5-2h3p2--3p2---|
|------------------------------------|------------------------5-|
|------------------------------------|--------------------------|
|------------------------------------|--------------------------|
|------------------------------------|--------------------------|
|------------------------------------|--------------------------|
|
|
| Gtr II
|       PM--|                                PM--|
| E E E E E E E E                      E E E E E E E E
|------------------------------------|--------------------------|
|------------------------------------|--------------------------|
|-4-4-4-------1----------------------|--------------------------|
|-4-4-4-------2----------------------|-4-4-4-------4------------|
|-2-2-2-2-2-2-2-0--------------------|-0-0-0-0-0-0-0------------|
|------------------------------------|---------------0----------|


  Gtr I
                                                 |---5---| |---5---|
  E E E E    +E  E S S E   S E. +E  E +E  Q  E   S S S S S S S S S S H
|------------------------|---------------------|--------------------------|
|-3---3-5b7==(5)-5-5p3---|-3-5--(5)-3-(3)-2--3-|--------------------------|
|---4------------------4-|---------------------|-4h6p4h6p4h6p4h6p4h6p4----|
|------------------------|---------------------|--------------------------|
|------------------------|---------------------|--------------------------|
|------------------------|---------------------|--------------------------|


  Gtr II
        PM--|
  E E E E E E E E    Q.   E E E Q     W
|------------------------|---------------------|--------------------------|
|------------------------|---------------------|--------------------------|
|------------------------|---------------------|--------------------------|
|------------------------|-2------3-3-2--------|--2-----------------------|
|-4-4-4-------2-2--------|-2------2-2-2--------|--2-----------------------|
|-2-2-2-2-2-2-0-0--------|-0----0-0-0-0--------|-(0)----------------------|


  Gtr I
   W               W             W              W      W 
|---------------|--------------|--------------|------|-----|
|---------------|--------------|--------------|------|-----|
|-(4)-----------|--------------|--------------|------|-----|
|---------------|--------------|--------------|------|-----|
|---------------|--------------|--------------|------|-----|
|---------------|--------------|--------------|------|-----|
|
|
| Gtr II
|                        |-3-|          |-3-|
| Q.  E E E E E   Q.   E Q Q Q   Q.   E Q Q Q   W      +W
|---------------|--------------|--------------|------|-----|
|---------------|--------------|--------------|------|-----|
|-4-------------|--------------|--------------|------|-----|
|-4---4-4-4-2---|-4----3-3-2-2-|-4----3-3-2-2-|-2----|-(2)-|
|-2---2-2-2-2---|-0----0-0-0-0-|-4----4-4-4-4-|-2----|-(2)-|
|---------------|--------------|-2----2-2-2-2-|-0----|-(0)-|


BASS PART************************************************************

 6/8
  Wx8
|--------|
|--------|
|--------|
|--------|
|--------|
|--------|

SLOWER PART************************************************************

Gtr I (E A D G B E)    - 'Light distortion'
Gtr II (E A D G B E)   - 'Light distortion'
Gtr III (E A D G B E)  - 'Light distortion'

SLowly 56

This is a part with three guitars at the same, just play what you like.
This contains alot slow bends, so listen to the CD.


    Gtr I
    Q.     +Q.     +Q.     E    +E  S S   H.        +Q.   +E  E  E
||---------------|----------------------|---------|-----------------||
||o--------------|----------------------|---------|----------------o||
||--9b11---(9)---|-(9)-----9b11r(9)-6h9-|-6-------|-(6)---(6)-6\----||
||---------------|----------------------|---------|-----------------||
||o--------------|----------------------|---------|----------------o||
||---------------|----------------------|---------|-----------------||
|
|
|   Gtr II
|   Q.     +Q.     +Q.     E    +E  S S   H.        +Q.   +E  E  E
||---------------|----------------------|---------|-----------------||
||o--------------|----------------------|---------|----------------o||
||---------------|----------------------|---------|-----------------||
||--9b11---(9)---|-(9)-----9b11r(9)-7h9-|-7-------|-(7)---(7)-7\----||
||o--------------|----------------------|---------|----------------o||
||---------------|----------------------|---------|-----------------||
|
|
|   Gtr III
|    Q.      +Q.   +Q.   E     +E  S  S   H.        +Q.   +E  E  E
||---------------|----------------------|---------|-----------------||
||o--------------|----------------------|---------|----------------o||
||---------------|----------------------|---------|-----------------||
||---------------|----------------------|---------|-----------------||
||o-11b12---(11)-|-(11)-11b12r(11)-9h11-|-9-------|-(9)---(9)-9\---o||
||---------------|----------------------|---------|-----------------||


  Gtr I
  Q.     +Q.     +Q.     E    +E  S S   E E E Q.     +Q.   +E  E  E
|--------------|----------------------|------------|----------------|
|--------------|----------------------|------------|----------------|
|-9b11---(9)---|-(9)-----9b11r(9)-6h9-|-6----------|----------------|
|--------------|----------------------|---7-7-7----|-(7)---(7)-7\---|
|--------------|----------------------|------------|----------------|
|--------------|----------------------|------------|----------------|
|
|
| Gtr II
| Q.     +Q.     +Q.     E    +E  S S   E E E Q.     +Q.   +E  E  E
|--------------|----------------------|------------|----------------|
|--------------|----------------------|------------|----------------|
|--------------|----------------------|------------|----------------|
|-9b11---(9)---|-(9)-----9b11r(9)-7h9-|-7----------|----------------|
|--------------|----------------------|---9-9-9----|-(9)---(9)-9\---|
|--------------|----------------------|------------|----------------|
|
|
| Gtr III
|  Q.      +Q.    +Q.  E     +E  S  S   E E E Q.     +Q.   +E  E  E
|--------------|----------------------|------------|----------------|
|--------------|----------------------|------------|----------------|
|--------------|----------------------|------------|----------------|
|--------------|----------------------|------------|----------------|
|-11b12---(11)-|-(11)-11b12r(11)-9h11-|-9----------|----------------|
|--------------|----------------------|---9-9-9----|-(9)---(9)-9\---|


  Gtr I
  Q.     +Q.     +Q.       E    +E  S S   E E E E E E   E E S S Q.
|--------------|------------------------|-------------|--------------|
|--------------|------------------------|-------------|--------------|
|-9b11---(9)---|-(9)-------9b11r(9)-6h9-|-6-----------|--------------|
|--------------|------------------------|---7-7-7-6-6-|-7-6-6h7S9----|
|--------------|------------------------|-------------|--------------|
|--------------|------------------------|-------------|--------------|
|
|
| Gtr II
| Q.     +Q.     +Q.       E    +E  S S   E E E E E E   E E S S  Q.
|--------------|------------------------|-------------|---------------|
|--------------|------------------------|-------------|---------------|
|--------------|------------------------|-------------|---------------|
|-9b11---(9)---|-(9)-------9b11r(9)-7h9-|-7-----------|---------------|
|--------------|------------------------|---9-9-9-7-7-|-9-7-7h9S11----|
|--------------|------------------------|-------------|---------------|
|
|
| Gtr III
|  Q.    +Q.      +Q.    E     +E  S  S   E E E E E E   E E S S  Q.
|--------------|------------------------|-------------|---------------|
|--------------|------------------------|-------------|---------------|
|--------------|------------------------|-------------|---------------|
|--------------|------------------------|-------------|---------------|
|-11b12-(11)---|-(11)---11b12r(11)-9h11-|-9-----------|---------------|
|--------------|------------------------|---9-9-9-7-7-|-9-7-7h9S12----|


  Gtr I
                PM----|
  H.        +E  S S S S  E E S S   E E E Q.     +Q.   +Q   S    +S
|---------|----------------------|------------|------------------------|
|---------|----------------------|------------|------------------------|
|---------|----------------------|-6----------|------------9b11r(9)b11-|
|---------|---------7-9S11-9-7-9-|---4-7-7----|-(7)---(7)--------------|
|-9-------|-(9)-7-9--------------|------------|------------------------|
|---------|----------------------|------------|------------------------|
|
|
| Gtr II
| W         W                      Q.   Q.      +Q.   +Q   S    +S
|--------|-----------------------|------------|------------------------|
|--------|-----------------------|------------|------------------------|
|--------|-----------------------|------------|------------------------|
|--------|-----------------------|------------|------------9b11r(9)b11-|
|--------|-----------------------|------9-----|-(9)---(9)--------------|
|--------|-----------------------|------------|------------------------|
|
|
| Gtr III
| W         W                       W           Q.   Q   S     +S
|--------|-----------------------|------------|------------------------|
|--------|-----------------------|------------|------------------------|
|--------|-----------------------|------------|------------------------|
|--------|-----------------------|------------|------------------------|
|--------|-----------------------|------------|---------11b13r(11)b13--|
|--------|-----------------------|------------|------------------------|

[ Tab from: http://www.guitartabs.cc/tabs/m/metallica/orion_tab_ver_2.html ]
  Gtr I
   H.           +Q         S    +S      +E  +E  S S   E E E E E E   E E S S E. S S S
|-------------|-------------------------------------|-------------|-------------------|
|-------------|-------------------------------------|-------------|-------------------|
|-(9)b11------|-(9)--------9b11r(9)b11==(9)r(9)-6h9-|-6-----------|-------------------|
|-------------|-------------------------------------|---7-7-7-6-6-|-7-6-6-7S9--9-9-9--|
|-------------|-------------------------------------|-------------|-------------------|
|-------------|-------------------------------------|-------------|-------------------|
|
|
| Gtr II
|  H.           +Q         S    +S      +E  +E  S S   E E E E E E   E E S S  E. S S S
|-------------|-------------------------------------|-------------|-------------------|
|-------------|-------------------------------------|-------------|-------------------|
|-------------|-------------------------------------|-------------|-------------------|
|-(9)b11------|-(9)--------9b11r(9)b11==(9)r(9)-7h9-|-7-----------|-------------9-9-9-|
|-------------|-------------------------------------|---9-9-9-7-7-|-9-7-7-9S11--------|
|-------------|-------------------------------------|-------------|-------------------|
|
|
| Gtr III
|   H.            +Q   S     +S       +E   +E  S  S   E E E E E E   E E S S Q.
|-------------|-------------------------------------|-------------|-------------------|
|-------------|-------------------------------------|-------------|-------------------|
|-------------|-------------------------------------|-------------|-------------------|
|-------------|-------------------------------------|-4-----------|-------------------|
|-(11)b12-----|-(11)--11b12r(11)b12==(11)r(11)-9h11-|---4-4-4-----|-------------------|
|-------------|-------------------------------------|---------5-5-|-5-4-4-5-4---------|


  Gtr I
  E S S e E E E   E E E S S E S S   H.        +Q.       S S S S S S
|---------------|-----------------|---------|-----------------------|
|---------------|-----------------|---------|-----------------------|
|-9-9-9-9-9-6-6S|=7-7-7---------6-|-6-------|-(6)-------9-9-9-9-9-9-|
|---------------|-------9-7-6-7---|---------|-----------------------|
|---------------|-----------------|---------|-----------------------|
|---------------|-----------------|---------|-----------------------|
|
|
| Gtr II
| W               W                 H.        +Q. S  S  S  S  S  S
|---------------|-----------------|---------|-----------------------|
|---------------|-----------------|---------|-----------------------|
|---------------|-----------------|---------|-----------------------|
|---------------|-----------------|-7-------|-(7)-11-11-11-11-11-11-|
|---------------|-----------------|---------|-----------------------|
|---------------|-----------------|---------|-----------------------|
|
|
| Gtr III
| W               W                 H.        +Q.   S S S S S S
|---------------|-----------------|---------|-----------------------|
|---------------|-----------------|---------|-----------------------|
|---------------|-----------------|---------|-----------------------|
|---------------|-----------------|-4-------|-(4)---4-4-4-4-4-4-----|
|---------------|-----------------|---------|-----------------------|
|---------------|-----------------|---------|-----------------------|


  Gtr I
   E S S E E E E   E E E S S E S S   H.        +Q.   E    +E  S S
|-----------------------|--------------------|----------|--------------------|
|-----------------------|--------------------|----------|--------------------|
|-/9-9-9-9-9-6-6--------|-7-7-7---------6----|-6--------|-(6)---4b6==(4)r4p2-|
|-----------------------|-------9-7-6-7------|----------|--------------------|
|-----------------------|--------------------|----------|--------------------|
|-----------------------|--------------------|----------|--------------------|
|
|
| Gtr II
|   E  S  S  E  E  E  E   E E E  S S  E S  S    H.         +Q.   Q.
|-----------------------|--------------------|----------|--------------------|
|-----------------------|--------------------|----------|--------------------|
|-----------------------|--------------------|----------|--------------------|
|-/11-11-11-11-11-------|-9-9-9--------------|----------|--------------------|
|-----------------12-12-|-------11-9----9-12-|-12-------|-(12)---------------|
|-----------------------|------------12------|----------|--------------------|
|
|
| Gtr III
|  E S S E E E E          E E E S S E S S      H.          +Q.   Q.
|-----------------------|--------------------|----------|--------------------|
|-----------------------|--------------------|----------|--------------------|
|-----------------------|--------------------|----------|--------------------|
|-/4-4-4-4-4------------|--------------------|----------|--------------------|
|------------4-4--------|-5-5-5-2-------4----|-4--------|-(4)----------------|
|-----------------------|---------5-4-5------|----------|--------------------|


  Gtrs I, II
  H.        +Q.   +E. S S S   H.        +Q.   Q.
|---------|-----------------|---------|------------|
|-2-------|-(2)---(2)-------|---------|------------|
|-2-------|-(2)---(2)-----2-|---------|------------|
|-4-------|-(4)---(4)-2-2---|-4-------|-(4)---4\---|
|---------|-----------------|---------|------------|
|---------|-----------------|---------|------------|


  Gtr I
  E S S S S E S S S S   E S S e E S S S S   E S S S S E S S S S
|---------------------|-------------------|---------------------|
|---------------------|-------------------|---------------------|
|-------6---6---6-9-6-|-7-7---------------|-------6---6---6-9-6-|
|-----7---7---7-------|-----9-6-----6-9-6-|-7---7---7---7-------|
|-9-9-----------------|---------7-7-------|---9-----------------|
|---------------------|-------------------|---------------------|


  Gtr I
  E S S e E S S S S
|-------------------|
|-------------------|
|-7-7---------------|
|-----9-6-----6-9-6-|
|---------7-7-------|
|-------------------|


  Gtr I
  E S S S S E S S S S    E S S e E S S S S   E S S S S E S S S S
|----------------------|-------------------|---------------------|
|----------------------|-------------------|---------------------|
|-------6---6---6-9-6--|-7-7---------------|-------6---6---6-9-6-|
|-7---7---7---7--------|-----9-6-----6-9-6-|-7---7---7---7-------|
|---9------------------|---------7-7-------|---9-----------------|
|----------------------|-------------------|---------------------|
|
|
| Gtr II
| E S S S S E S S  S S   E S S E E S S S S   E S S S S E S S  S S
|----------------------|-------------------|----------------------|
|-----------------10---|-7-7---------------|-----------------10---|
|-6---6-9-6-9-6-9----9-|-----7---------7---|-6---6-9-6-9-6-9----9-|
|---7------------------|-------9-6-6-9---9-|---7------------------|
|----------------------|-------------------|----------------------|
|----------------------|-------------------|----------------------|


  Gtr I
  S T T S S S S E S S S S     Q  S S Q  S S   Q  S S Q  S S     4x
|-------------------------||----------------|-------------------||
|-------------------------||o---------------|------------------o||
|-7-7-7-7-----------------||-----6-9-6--9-9S|=7--7-9------6-----||
|---------4-6-9-----6-9-6-||--7-------------|--------6--7-------||
|---------------7-7-------||o---------------|------------------o||
|-------------------------||----------------|-------------------||
|
|
| Gtr II
| S T T S S S S E S S S S     Q  S  S Q  S  S   Q  S  S Q  S S  4x
|-------------------------||------------------|-----------------||
|-7-7-7-7-----------------||o------10------10S|=7--7-10--------o||
|---------7---7-------7---||--6--9----9--9----|---------9--9-9--||
|-----------9---6-6-9---9-||------------------|-----------------||
|-------------------------||o-----------------|----------------o||
|-------------------------||------------------|-----------------||


FIRST SOLO********************************************************************

Gtr I (E A D G B E)    - 'Distortion'
Gtr II (E A D G B E)   - 'Distortion'

At the part for the second guitar you will see muted notes, this aren't muted notes,
this is only for the rythem, just play the chords above the muted notes.

  Gtr I
   S  S  S  S  S  S  S  S  S  S  S  S    S  S  S  S  S  S  S  S  S  S  S  S
|-------------------------------------|----------------------------14-15-17-|
|-------------------------------------|----------------12-14-15-17----------|
|-------------------------------------|-------11-13-14----------------------|
|-------------11----------11-12-14-11-|-12-14-------------------------------|
|-12-11-12-14----11-12-14-------------|-------------------------------------|
|-------------------------------------|-------------------------------------|
|
|
| F#5    A5    A5                      E5   E5  C5   C5
| Gtr II
| Q.     Q     E                        Q    E   Q    E
|-------------------------------------|-------------------------------------|
|-------------------------------------|-------------------------------------|
|-------------------------------------|-------------------------------------|
|-------------------------------------|-------------------------------------|
|-------------------------------------|-------------------------------------|
|-x------x-----x----------------------|-x----x---x----x---------------------|


  Gtr I                                                         ~~~~~
   Q   E  E  S  T  T  a  a  S  S    S  S  S  S  S  S  S     S  E    E   E S S e a E E E
|-17--17-17-14-17p14-14-17-14-12-|------------------------------------|-2-2-4-5-5h7-5-4-|
|--------------------------------|-14p12-------------------17---------|-----------------|
|--------------------------------|-------14p11-14-16-16b18----16b18---|-----------------|
|--------------------------------|------------------------------------|-----------------|
|--------------------------------|------------------------------------|-----------------|
|--------------------------------|------------------------------------|-----------------|
|
|
| F#5   F#A5   A5                  E5    E5C5                           F#5    A5
| Gtr II
|  Q    E Q    E                    Q    E Q.                           Q.     Q.
|--------------------------------|------------------------------------|-----------------|
|--------------------------------|------------------------------------|-----------------|
|--------------------------------|------------------------------------|-----------------|
|--------------------------------|------------------------------------|-----------------|
|--------------------------------|------------------------------------|-----------------|
|-/x----x-x----x-----------------|-\x----x-x--------------------------|-x------x--------|


  Gtr I
  |-3-|   |-3-|                             |---3---|
  T T T S T T T +S  E E S S S S   S S E S S S   +S  S E S S
|---------4h5h7-(7)S9-7-7-5-4-5-|-4-------------------------|
|-2h3h5h7-----------------------|---5-----------------------|
|-------------------------------|-----4-2-4-4b6r(4)p2-----2-|
|-------------------------------|---------------------4-4---|
|-------------------------------|---------------------------|
|-------------------------------|---------------------------|
|
|
| E5       C5                     F#5      A5   A5
| Gtr II
| Q.       Q.                      Q.      Q    E
|-------------------------------|---------------------------|
|-------------------------------|---------------------------|
|-------------------------------|---------------------------|
|-------------------------------|---------------------------|
|-------------------------------|---------------------------|
|-x--------x--------------------|-/x-------x----x-----------|


  Gtr I
  S S S S S   +T  T E Q
|-----------------------|
|-----------------------|
|-4-2-4-2-4b6r(4)p2-----|
|-------------------4-4-|
|-----------------------|
|-----------------------|
|
|
| E5   E5C5
| Gtr II
| Q    E Q.
|-----------------------|
|-----------------------|
|-----------------------|
|-----------------------|
|-----------------------|
|-x----x-x--------------|


SECOND SOLO**************************************************************

Gtr I (E A D G B E)    - 'Distortion'
Gtr II (E A D G B E)   - 'Distortion'
Gtr III (E A D G B E)  - 'Distortion'

At the part for the second guitar you will see muted notes, this aren't muted notes,
this is only for the rythem, just play the chords above the muted notes.

  Gtr III
  Q     +E  Q.    +S  S S S S S S S S S T T T T   T T T T T T T T T T T T Q.
|---------------|-------------------------------|----------------------------|
|---------------|-------------------------------|----------------------------|
|-9b12r=(9)-9---|-(9)-----9---9-------4-5p4---4-|-5p4---4-5p4---4-5p4---4----|
|-7b9r==(7)-5---|-----7-7---5---4-5-7-------7---|-----7-------7-------7---5--|
|---------------|-------------------------------|----------------------------|
|---------------|-------------------------------|----------------------------|
|
|
| E5   G5         D5       B5                     E5       G5
| Gtr II
| Q.   Q.         Q.       Q.                     Q.       Q.
|---------------|-------------------------------|----------------------------|
|---------------|-------------------------------|----------------------------|
|---------------|-------------------------------|----------------------------|
|---------------|-------------------------------|----------------------------|
|---------------|-------------------------------|----------------------------|
|-x----x--------|-x--------x--------------------|-x--------x-----------------|


				(Here will play two guitars,)

  Gtr III                       Gtrs I, III
  S T T S S S S T T S S S S S   S S S S S S S S S S S S
|-----------------------------|-------------------------|
|-----------------------------|-3-----3-----------------|
|---4-5-7-5-4-5-5p4---4-5-4-5-|-4-4---4-4---4-----4-----|
|-5-----------------7---------|---5-5---5-5-5-5-2-5-5-2-|
|-----------------------------|-----7-----7---7-3---7-3-|
|-----------------------------|-------------------------|
|
|
| D5       B5                   E5      G5
| Gtr II
| Q.       Q.                   Q.      Q.
|-----------------------------|-------------------------|
|-----------------------------|-------------------------|
|-----------------------------|-------------------------|
|-----------------------------|-------------------------|
|-----------------------------|-------------------------|
|-x--------x------------------|-x-------x---------------|


  Gtrs I, III
  S S S S S S S S S S S S    E     S  S  S      +S   S  S  T  T S  S S
|-------------------------|--------------------------------------------|
|-------------------------|--------------------------------------------|
|-5-2---5-2---2-------2---|-11b12-11--9-11b12==(11)r=9-11-11p=9S7--9-7-|
|-7-4-4-7-4-4-4-4---4-4-4-|--------------------------------------------|
|-----5-----5---5-5-5---5-|-12b14-10-12-12b14==(12)r10-12-12p10S9-10-9-|
|-----------------7-------|--------------------------------------------|
|
|
| D5       B5               E5       G5
| Gtr II
| Q.       Q.               Q.       Q.
|-------------------------|--------------------------------------------|
|-------------------------|--------------------------------------------|
|-------------------------|--------------------------------------------|
|-------------------------|--------------------------------------------|
|-------------------------|--------------------------------------------|
|-x--------x--------------|-x--------x---------------------------------|


                                 2/8
  Gtrs I, III
     |-3--|
   S T  T T S S S S S S S S S S   S S E
|-------------------------------|-------|
|-------------------------------|-------|
|--9-7h=9p7S5-7-5-4-5-4-2-4-5-4-|-------|
|-------------------------------|-5-5---|
|-10-9h10p9S7-9-7-5-7-5-3-5-----|-------|
|---------------------------3-2-|-0-0---|
|
|
| D5       B5                    E5E5
| Gtr II
| Q.       Q.                    S S E
|-------------------------------|-------|
|-------------------------------|-------|
|-------------------------------|-------|
|-------------------------------|-------|
|-------------------------------|-------|
|-x--------x--------------------|-x-x---|


 4/4                        3/4         4/4
  Gtrs I, II
                       PM|
  Q.   Q.   Q   +H.    E E   Q.   Q.     W
|-------------|------------|-----------|----------|
|-------------|------------|-----------|----------|
|-2---------5-|-(5)--------|-5---------|-2--------|
|-2----2----5-|-(5)--------|-5----2----|-2--------|
|-0----2----3-|-(3)--------|-3----2----|-0--------|
|------0------|--------0-0-|------0----|----------|


THIRTH SOLO*************************************************************

Gtr I (E A D G B E)    - 'Distortion'
Gtr II (E A D G B E)   - 'Distortion'

  Gtr I
                                                                  ~~~~~
   Q     Q     Q     E     E       +E   E     E     E     E     Q     S S   S    S  S S  S     S   S S S S  S S  e     S S
|-------------------------------|-----------------------------------------|------------------------------------------------|
|-10b12-10b12-10b12-10b12-10b12-|-(10)-10b12-10b12-10b12-10b12-10b12-10p7-|------7-10p7-10b12=10r-10p7---7-10p7-10b12-10p7-|
|-------------------------------|-----------------------------------------|-9b11------------------------9------------------|
|-------------------------------|-----------------------------------------|------------------------------------------------|
|-------------------------------|-----------------------------------------|------------------------------------------------|
|-------------------------------|-----------------------------------------|------------------------------------------------|
|
|
| Gtr II
|       PM--|                           PM--|                                     PM--|
| E E E E E E E E                 E E E E E E E E                           E E E E E E E E
|-------------------------------|-----------------------------------------|------------------------------------------------|
|-------------------------------|-----------------------------------------|------------------------------------------------|
|-4-4-4-------------------------|-4-4-4-----------------------------------|------------------------------------------------|
|-4-4-4-------2-----------------|-4-4-4-------2---------------------------|-4-4-4-------4----------------------------------|
|-2-2-2-2-2-2-0-----------------|-2-2-2-2-2-2-0---------------------------|-0-0-0-0-0-0-0----------------------------------|
|-------------------------------|-----------------------------------------|------------------------------------------------|


  Gtr I
                 |-3-|                                   ~~~~~~~                         ~~~~~~~
   S S S  S S S  S S S  S S S  S S S  S S    Q     E     E  +E  E  E  E       +Q   E     E  +Q.  S S
|-10p7---10p7---10p7---10p7---10p7---10p7-|-10b12-10b12-10-(10)-7-10-10b12-|-(10)-10b12-10-(10)-10p7-|
|------7------7------7------7------7------|---------------------7----------|-------------------------|
|-----------------------------------------|--------------------------------|-------------------------|
|-----------------------------------------|--------------------------------|-------------------------|
|-----------------------------------------|--------------------------------|-------------------------|
|-----------------------------------------|--------------------------------|-------------------------|
|
|
| Gtr II
|       PM--|                                     PM--|                            PM--|
| E E E E E E E E                           E E E E E E E E                  E E E E E E E E
|-----------------------------------------|--------------------------------|-------------------------|
|-----------------------------------------|--------------------------------|-------------------------|
|-----------------------------------------|-4-4-4--------------------------|-------------------------|
|-4-4-4-------2---------------------------|-4-4-4-------2------------------|-4-4-4-------4-----------|
|-4-4-4-------0---------------------------|-2-2-2-2-2-2-0------------------|-0-0-0-0-0-0-0-----------|
|-2-2-2-2-2-2-----------------------------|--------------------------------|-------------------------|


  Gtr I
   S S  S S  S S S S S S S S S S S S   S S S S e S S S S S S +E  E
|-10p7-------------------------------|-----------------------------|
|------10p7-10p7---------------------|-----------------------------|
|----------------9-7-9p7-------------|-----------------------------|
|------------------------9-7-9p7-----|-----------------------------|
|--------------------------------9-8-|-7p5-7p5---7p5-7p5---5-(5)---|
|------------------------------------|---------7---------7---------|
|
|
| Gtr II
|       PM--|                              PM----|
| E E E E E E E E                      E E E E E E E E
|------------------------------------|-----------------------------|
|------------------------------------|-----------------------------|
|------------------------------------|-----------------------------|
|-4-4-4-------2----------------------|-2-2---------2---------------|
|-4-4-4-------0----------------------|-2-2---------2---------------|
|-2-2-2-2-2-2------------------------|-0-0-0-0-0-0-0---------------|


  Gtr I                                      ~~~~~~~~~~
  S S S S E S S E E +E   S  S    S     S  S  S     +E   S  S  E     S  S  S     S  S  S
|-----------------------------|------------------------------22b24-22p19-------19-22p19-|
|--------------------------19-|-------19-22-22b24-(22)-22p19-------------22b24----------|
|---------------7-------------|-21b23---------------------------------------------------|
|-----------7h9---9-(9)S21----|---------------------------------------------------------|
|-----5-7-9-------------------|---------------------------------------------------------|
|-5h7-------------------------|---------------------------------------------------------|
|
|
| Gtr II
|       PM--|                         PM--|
| E E E E E E E E               E E E E E E E E
|-----------------------------|---------------------------------------------------------|
|-----------------------------|---------------------------------------------------------|
|-4-4-4-----------------------|-4-4-4---------------------------------------------------|
|-4-4-4-------2---------------|-4-4-4-------2-------------------------------------------|
|-2-2-2-2-2-2-0---------------|-2-2-2-2-2-2-0-------------------------------------------|
|-----------------------------|---------------------------------------------------------|

                                                                                                                          ~~~~~
  Gtr I                                                                                     |-----5-----|  |-----5-----|
   S     S  S     S  S     S  S     S  S     S  S     S  S     S  S  S    S     S  S  T  T  S  S  S  S  S  S  S  S  S  S  Q
|-------19-------19-------19-------19-------19-------19-------19-------|-------------------------------------------------------|
|-22b24----22b24----22b24----22b24----22b24----22b24----22b24----22-22-|-------19-22-19----19-22p19----19-22p19----19-22-22b24-|
|----------------------------------------------------------------------|-21b23----------21----------21----------21-------------|
|----------------------------------------------------------------------|-------------------------------------------------------|
|----------------------------------------------------------------------|-------------------------------------------------------|
|----------------------------------------------------------------------|-------------------------------------------------------|
|
|
| Gtr II
|       PM--|                                                                  PM--|
| E E E E E E E         E                                                E E E E E E E          E
|----------------------------------------------------------------------|-------------------------------------------------------|
|----------------------------------------------------------------------|-------------------------------------------------------|
|----------------------------------------------------------------------|-------------------------------------------------------|
|-4-4-4-------4--------------------------------------------------------|-4-4-4-------2-----------------------------------------|
|-0-0-0-0-0-0-0--------------------------------------------------------|-4-4-4-------0-----------------------------------------|
|----------------------------------------------------------------------|-2-2-2-2-2-2-------------------------------------------|


  Gtr I
  E  E  E S S  E  E S S  E      S S  E  E S S  E  E S S S S
|---22-22-----22-22-----22b24-|-----22-22-----22-22---------|
|-----------------------------|-----------------------------|
|---------2h4-------2h4-------|-2h4-------2h4-------2h4-7p6-|
|-----------------------------|-----------------------------|
|-----------------------------|-----------------------------|
|-----------------------------|-----------------------------|
|
|
| Gtr II
|       PM--|                         PM--|
| E E E E E E E          E      E E E E E E E          E
|-----------------------------|-----------------------------|
|-----------------------------|-----------------------------|
|-4-4-4-----------------------|-----------------------------|
|-4-4-4-------2---------------|-4-4-4-------4---------------|
|-2-2-2-2-2-2-0---------------|-0-0-0-0-0-0-0---------------|
|-----------------------------|-----------------------------|


  Gtr I
                                                          ~
              |-3-|
  S S S S S S S S S S S S S S S S S   S S S S S S S S E E Q
|-----------------------------------|------------------------|
|-----------------------------------|------------------------|
|-7p6---7p6---7p6---7p6---7p6---7p6S|=4p2p0-4p2p0-4p2-2------|
|-----9-----9-----9-----9-----9-----|-------------------2-2--|
|-----------------------------------|------------------------|
|-----------------------------------|------------------------|
|
|
| Gtr II
|       PM--|                             PM----|
| E E E E E E E          E            E E E E E E E      E
|-----------------------------------|------------------------|
|-----------------------------------|------------------------|
|-----------------------------------|------------------------|
|-4-4-4-------2---------------------|-2-2---------2----------|
|-4-4-4-------0---------------------|-2-2---------2----------|
|-2-2-2-2-2-2-----------------------|-0-0-0-0-0-0-0----------|


OUTRO*********************************************************************

Gtr II (E A D G B E)   - 'Distortion'

    Gtr II
    E S S E S S S S E S S S S   E S S S S E S S E S S E
||----------------------------|-------------------------|
||o---------------------------|-------------------------|
||--------2---------4---------|-5-----------------------|
||--------2---------4---------|-5-----------------------|
||o-------0---------2---------|-3-----------------------|
||--0-0-0---0-0-0-0---0-0-0-0-|---0-0-0-0-0-0-0-1-1-1-0-|


  E S S E S S S S E S S S S   E S S S S E S S E S S E
|---------------------------|--------------------------||
|---------------------------|-------------------------o||
|-------5---------4---------|-2------------------------|| Repeat and fade out
|-------5---------4---------|-2------------------------||
|-------3---------2---------|-0-----------------------o||
|-0-0-0---0-0-0-0---0-0-0-0-|---0-0-0-0-0-0-0-1-1-1-0--||


TAB EXPLANATION*********************************************************************

Duration Legend
---------------
W - whole;
H - half; 
Q - quarter; 
E - 8th; S - 16th; 
T - 32nd; X - 64th; 
a - acciaccatura
+ - note tied to previous; 
. - note dotted; 
.. - note double dotted
Uncapitalized letters represent notes that are staccato (1/2 duration)
Irregular groupings are notated above the duration line
Duration letters will always appear directly above the note/fret number it represents the
duration for.  Duration letters with no fret number below them represent rests.  Multi-
bar rests are notated in the form Wxn, where n is the number of bars to rest for.  Low
melody durations appear below the staff

Tablature Legend
----------------
 h   - hammer-on
 p   - pull-off
 b   - bend
 pb  - pre-bend
 r   - bend release (if no number after the r, then release immediately)
 /\  - slide into or out of (from/to "nowhere")
 s   - legato slide
 S   - shift slide
  - natural harmonic
[n]  - artificial harmonic
n(n) - tapped harmonic
 ~   - vibrato
 tr  - trill
 T   - tap
 TP  - trem. picking
 PM  - palm muting
\n/  - tremolo bar dip; n = amount to dip
 \n  - tremolo bar down
 n/  - tremolo bar up
/n\  - tremolo bar inverted dip
 =   - hold bend; also acts as connecting device for hammers/pulls
   - volume swell (louder/softer)
 x   - on rhythm slash represents muted slash
 o   - on rhythm slash represents single note slash

Misc Legend
-----------
 |  - bar
||  - double bar
||o - repeat start
o|| - repeat end
*|  - double bar (ending)
 :  - bar (freetime)
 $  - Segno
 &  - Coda
Tempo markers -  = BPM(8/16=s8/s16), where s8 = swing 8ths, s16 = swing 16ths


***************************************************************************************
* Generated using Power Tab Editor by Brad Larsen - http://powertab.guitarnetwork.org *
***************************************************************************************
Comments