Metallica - Orion Chords & Tabs

 

Orion Chords & Tabs

Metallica Chords & Tabs

Version: 5 Type: Bass Tab 0 ratings
1 star 2 stars 3 stars 4 stars 5 stars
comments

Orion Bass Tab

ARTIST - METALLICA
ALBUM - MASTER OF PUPPETS
SONG - ORION (INSTRUMENTAL)
YEAR 1986
This is pretty much 100% accurate i hope

INTRO
G|--------4----------|
D|----------------4--|
A|-7------5-------6--|
E|-0-----------------|

MAIN RIFF
G|-------------------|-----------------|
D|-------------------|-----------------|
A|-7-----7-----7-----|-5-----7-----7---|
E|---0-0---0-0---0---|---0-0---0-0-----|

G|-------------------|-----------------|-------------------|
D|-------------------|-----------------|-------------------|
A|-5-----5-----5-----|-6-----6-----6---|-6-----6-----------|
E|---7-7---7-7-------|---7-7---7-7-----|---7-7---7-7-3-2---|

G|-------------------|-----------------|
D|-------------------|-----------------|
A|-------------------|-----------------|
E|-0-0-5---0--8------|-0-0-8---0--5----|

G|-------------------|-----------------|--------------|
D|-------------------|-----------------|--------------|
A|-------------------|-----------------|--------------|
E|-0000-5--0000-7----|-0000-8--00000---|-00-1--11-0---|

G|-------------------|-----------------|--------------|
D|-------------------|-----------------|--------------|
A|-------------------|-----------------|--------------|
E|-0000-8--0000-7----|-0000-5--00000---|-00-1--11-0---|

G|-------------------|-----------------|---------------|
D|-------------------|-----------------|---------------|
A|-2----2-2-2-2-0----|-2----2-2-2-2----|-0---0-0-0-0---|
E|-------------------|-----------------|-------------0-|

G|-------------------|-----------------|---------------|
D|-------------------|-----------------|---------------|
A|------------0------|-2----2-2-2-2----|-0---0-0-0-0---|
E|-2----2-2-2--------|-----------------|-------------0-|

G|-------------------|-----------------|---------------|
D|-------------------|-----------------|---------------|                                
A|-------------------|-----------------|---------------|
E|-2----2-2-2-2------|-0----0-0-0------|---------------|

G|-------------------|-----------------|---------------|
D|-------------------|-----------------|---------------|
A|-2----2-2-2-2------|-0----0-0-0-0----|---------------|
E|-------------------|-----------------|-2----2-2-2-2--|


G|-------------------|
D|-------------------|
A|-------------------|
E|-0-----------------|


G|--------11-----9----|----9--------9----|
D|----11------7-----7-|-9-----9----------|
A|-9------------------|----------7-----7-|
E|--------------------|------------------|
  
G|--------11-----9----|----9-------------|
D|----11------7-----7-|-9-----9----------|
A|-9------------------|----------7-------|
E|--------------------|------------------|

G|--------11-----9----|----9-----7/9-9-9-9-------|
D|----11------7-----7-|-9-----9-------------11-9-|
A|-9------------------|--------------------------|
E|--------------------|--------------------------|

G|--------11-----9----|-7/9-9-9-9-9-9-9-7----------|
D|----11------7-----7-|--------------------9-7-----|
A|-9------------------|------------------------9-7-|
E|--------------------|----------------------------|

G|--------11-----9----|----9----------9------------|
D|----11------7-----7-|-9-----9--9/11---11-9-------|
A|-9------------------|----------------------12-9--|
E|--------------------|----------------------------|
[ Tab from: http://www.guitartabs.cc/tabs/m/metallica/orion_btab_ver_5.html ]
G|--------11-----9----|----9--------9--------------|
D|----11------7-----7-|-9-----9--------7-6---------|
A|-9------------------|----------7-----------------|
E|--------------------|----------------------------|

G|--------11-----9----|----9-----9-7---------------|
D|----11------7-----7-|-9-----9------11-9-7--------|
A|-9------------------|---------------------11-----|
E|--------------------|----------------------------|

G|--------11-----9----|----9--------9----|
D|----11------7-----7-|-9-----9----------|
A|-9------------------|----------7-----7-|
E|--------------------|------------------|

G|--------11-----9----|----9-----------------|
D|----11------7-----7-|-9-----9--9-7---------|
A|-9------------------|--------------9-7---7-|
E|--------------------|------------------9---|

G|--------11-----9----|----9--------9--------|
D|----11------7-----7-|-9-----9--------7-6---|
A|-9------------------|----------7-----------|
E|--------------------|----------------------|

G|--------11-----9----|----9----------9------|
D|----11------7-----7-|-9-----9-----9---9----|
A|-9------------------|----------11-------11-|
E|--------------------|----------------------|

G|--------11-----9----|----9--------9----|
D|----11------7-----7-|-9-----9----------|
A|-9------------------|----------7-----7-|
E|--------------------|------------------|

G|--------11-----9----|----9-----7/9-9-9-9-------|
D|----11------7-----7-|-9-----9-------------11-9-|
A|-9------------------|--------------------------|
E|--------------------|--------------------------|

G|--------11-----9----|----9---------9-----|
D|----11------7-----7-|-9-----9----9---9---|
A|-9------------------|----------7-------7-|
E|--------------------|--------------------|

G|--------11-----9----|-7/9-9-9--7/9-9-9--7/9-7---------|
D|----11------7-----7-|-------------------------9-7-----|
A|-9------------------|-----------------------------9-7-|
E|--------------------|---------------------------------|

G|--------11-----9----|----9--------9--------------|
D|----11------7-----7-|-9-----9--------7-6-7-------|
A|-9------------------|----------7-----------------|
E|--------------------|----------------------------|

G|--------11-----9----|-11--11-11-11-11-11-11-11-9----------|
D|----11------7-----7-|----------------------------11-9-7-9-|
A|-9------------------|-------------------------------------|
E|--------------------|-------------------------------------|


G|----------11-------------------|----------------------------|
D|-------11----11----14----------|----14----------------------|
A|-9--9-----------12----12-11-12-|-14----14-11-------12-11----|
E|-------------------------------|-------------14-12-------12-|

G|--------------------------9----|----------------------------|
D|----------11----11-----11---11-|-12-12-9---------------9----|
A|-12----12----12-----12---------|---------11---------11---11-|
E|----14-------------------------|-------------12--12---------|

G|-------------------------------------9-|--------------------------------------|
D|-----------------11-11-1111-11----11---|-12-1212-12-9----9---------------9----|
A|-12-1212-12-9-12---------------12------|--------------11--------------11---11-|
E|---------------------------------------|-------------------12-1212-12---------|


G|-----------|-----------|-----------|-----------|-----------|
D|-----------|-----------|-----------|-----------|-----------|
A|-----------|------4----|-----------|-5----2----|-----------|
E|-2----5----|-0---------|-0----3----|-----------|-00--------|

Im pretty sure this is about 100% correct.
Comments