Metallica - Orion Chords & Tabs

 

Orion Chords & Tabs

Metallica Chords & Tabs

Version: 4 Type: Bass Tab 0 ratings
1 star 2 stars 3 stars 4 stars 5 stars
comments

Orion Bass Tab

   
Band: Metallica
Song: Orion
Tuning: Standard


Here's the bass for Orion, it's pretty accurate, I hope you all like it.
[ Tab from: http://www.guitartabs.cc/tabs/m/metallica/orion_btab_ver_4.html ]
(2x)                                                              
|-R-|
|-E-|
|-S-|
|-T-|
(6x)
|---4---|
|2-----4|
|-------|
|-------|
(6x)
|---------------------------------------------------------------|
|2-----2-----2---2-----2-----2---0-----0-----0-0-1-----1-----1-1|
|----------------------------------2-2---2-2-------2-2---2-2----|
|--0-0---0-0---0---0-0---0-0---0--------------------------------|
(4x)
|----------------|
|----------------|
|0-----3--3-----0|
|---0--------0---|
(4x)
|-----------------------------------------------------------|
|-----------------------------------------------------------|
|--------------0-----2-----3-------------------3-----2-----0|
|0-0-1-1-1-0-0---0-0---0-0---0-0-0-0-1-1-1-0-0---0-0---0-0--|
(6x)
|---------------------------------------------------------------|
|2-----2-----2---2-----2-----2---0-----0-----0-0-1-----1-----1-1|
|----------------------------------2-2---2-2-------2-2---2-2----|
|--0-0---0-0---0---0-0---0-0---0--------------------------------|
(1x)
|-------------------------------------------------------------------------------|
|-------------------------------------------------------------------------------|
|2-2-2-2-2-2-2-0-2-2-2-2-2-2-2-0-0-0-0-0-0-0-0---------------0-0-2-2-2-2-2-2-2-0|
|----------------------------------------------0-2-2-2-2-2-2--------------------|
(1x)
|-------------------------------------------------------------------------------------|
|-------------------------------------------------------------------------------------|
|0-0-0-0-0-0-0----------------------------------2--2-2-2-2--0--0-0-0-0----------------|
|--------------0-2-2-2-2-2-2-2-0-0--0--0-0-0-0--------------------------2--2-2-2--2--0|
(10x)
|-----11---9-----9-----6--|-------11---9-----9----|-------11---9-----9-----9--|
|--11----7---7-9---9------|----11----7---7-9---9--|----11----7---7-9---9------|
|9-------------------7---7|--9-------------------7|--9-------------------7---7|
|-------------------------|-----------------------|---------------------------|
(4x)            (4x)                                           (1x)(1x)
|---------------|----------------------------------------------|---|11------14--14------16|
|---------------|----------------------------------------------|---|----10----------15----|
|------------4-4|------------------------5--5-5-5-5------------|---|----------------------|
|2-4-5-5-0-0----|0--0-0-0-0--4--4-4-4-4--------------7--7-7-7-7|0-0|----------------------|
(1x)
|----------------------------------------------------------|
|----------------------------------------------------------|
|2-2-2-2-2-2-2--2-2-2-2-2-2-2--0-0-0-0-0-0-0---------------|
|---------------------------------------------2-2-2-2-2-2-2|
(1x)
|----------------------------------------------------------|
|----------------------------------------------------------|
|2-2-2-2-2-2-2--0-0-0-0-0-0-0------------------------------|
|------------------------------2-2-2-2-2-2-2--0-0-0-0-0-0-0|
(1x)
|----------------------------------------------------------|
|----------------------------------------------------------|
|2-2-2-2-2-2-2--2-2-2-2-2-2-2--0-0-0-0-0-0-0---------------|
|---------------------------------------------2-2-2-2-2-2-2|
(1x)
|----------------------------------------------------------|
|----------------------------------------------------------|
|2-2-2-2-2-2-2--0-0-0-0-0-0-0------------------------------|
|------------------------------2-2-2-2-2-2-2--0-0-0-0-0-0-0|
(5x)
|-----------------------------------------------------------|
|-----------------------------------------------------------|
|--------------0-----2-----3-------------------3-----2-----0|
|0-0-1-1-1-0-0---0-0---0-0---0-0-0-0-1-1-1-0-0---0-0---0-0--|
(1x)
|-----------------------------------------|
|-----------------------------------------|
|--------------0-----2-----3--------------|
|0-0-1-1-1-0-0---0-0---0-0---0-0-0-0-1-1-1|
Comments