Metallica - Orion Chords & Tabs

 

Orion Chords & Tabs

Metallica Chords & Tabs

Version: 3 Type: Bass Tab 0 ratings
1 star 2 stars 3 stars 4 stars 5 stars
comments

Orion Bass Tab

Metallica
Orion Bass Solo

Hi people! Billy Campolo tried to transcript this ridiculous piece of solo in Orion on the
Master of Puppets album. I searched for the original version and found it as piece of the
guitar solo. Finally I 'transcripted' it for bass. 

set in at 3:38
w/ "soft" distortion
G|-(21)-------21----21----------16-17p16-----16-17p16----16-17p16----16-17p19----16-----|
D|------19-19----17----16-17-19----------19-----------19----------19----------19----17--|
A|--------------------------------------------------------------------------------------|
E|--------------------------------------------------------------------------------------|
[ Tab from: http://www.guitartabs.cc/tabs/m/metallica/orion_btab_ver_3.html ]
G|------16-17-19--17--16--17--17p16----16--17--16--17--|
D|-(17)-----------------------------19-----------------|
A|-----------------------------------------------------|
E|-----------------------------------------------------|

G|-16------16-----------------------------------------------------------------|
D|----17------17-----17-------17--------19-16----19-16-----16----------16-----|
A|-------19------19-----19-15----19-15--------17-------17-----17----17----17--|
E|---------------------------------------------------------------19-----------|

G|----------------------------------------------|---------------------------------------------|
D|-19fb--19-17-19fb(r)----17-19--19p17/16-17-16-|--17-16h17p16/14--16-14-12-14-12-10--12------|
A|----------------------------------------------|----------------------------------------10-9-|
E|----------------------------------------------|---------------------------------------------|
     fb=full bend
                   (r)=release

Greetinxx  (mailto FlyBy0891@lycos.de)
Comments