Metallica - One Chords & Tabs

 

One Chords & Tabs

Metallica Chords & Tabs

Version: 5 Type: Tab 2 ratings
1 star 2 stars 3 stars 4 stars 5 stars
comments

One Tab

      I know the tab sucks ,but I promise to put more information in the tab.

  Metallica
  "One"
  And Justice For All
[ Tab from: http://www.guitartabs.cc/tabs/m/metallica/one_tab_ver_5.html ]
    Intro:
  e:------------------------------------------------------------------------------
  B:------------------------------------------------------------------------------
  G:--------------------------------------------------------------------0---------
  D:--------4-------0-------2-------0-------4-------0-------2-------2-------------
  A:----2-------2-----------------------2-------2---------------------------------
  E:--------------------3-------3-----------------------3-------3-----------------

  e:------------------------------------------------------------------------------
  B:------------------------------------------------------------------------------
  G:------------------------------------------------------------------------------
  D:--------4-------0-------4-------0-------4-------0-------4---------------------
  A:----2-------2-----------------------------------------------------------------
  E:--------------------5-------5-------3-------3-------0-------2-----------------
Comments