Metallica - One Chords & Tabs

 

One Chords & Tabs

Metallica Chords & Tabs

Version: 3 Type: Tab 2 ratings
1 star 2 stars 3 stars 4 stars 5 stars
comments

One Tab

Metallica-One   (Part 1)
He Who Tabbed Thus: Scorch2099 (Joe B.)
Note: This is not the wholesong, Just the intro w/ the Chorus 
(Riffs not included, but you can figure them out), and Later On in the future I
'll tab the rest of this song which will be

Tempo: Moderately = 108

Battlefield effects last for about 15 seconds, then you start playing

Intro
e----------------|----------------|----------------|----------------|----------------|
B----------------|----------------|----------------|----------------|----------------|
G----------------|----------------|----------------|-------------0--|----------------|
D---4---0--------|---4---0--------|---4---0--------|---4---0--------|---4---0--------|
A-2---2----------|----------------|-2---2----------|----------------|-2---2----------|
E----------------|-3---3----------|----------------|-3---3----------|----------------|
[ Tab from: http://www.guitartabs.cc/tabs/m/metallica/one_tab_ver_3.html ]
e----------------|----------------|----------------|----------------|----------------|
B----------------|----------------|----------------|----------------|-3-2----3-2----3|
G----------------|----------------|----------------|-------2--4-----|-----4------2---|
D---4---0--------|---4---0--------|----------------|---2-4----------|----------------|
A-0---0----------|----------------|----2----2------|----------------|----------------|
E----------------|-3---3----------|--0----2--------|----------------|----------------|

e----------------|------------------------------|
B-3-2------------|------------------------------|
G-----4----------|-11-9----9\7--7-6-0-2-6-4-0-2-|
D----------------|------12----------------------|
A----------------|------------------------------|
E----------------|------------------------------|

Chorus

 Hold  my breath as I wish for death.__        Oh please God, help  me!_____________

e-----------------------------------|------------------------------|---------------------|
B-----------------------------------|------------------------------|---------------------|
G-0-----2----4----2-0---------4-----|-2---4--6--4-----2----4-----6-|-0-----2-4-2-0-----4-|
D-0-----2----4----2-0----4----4-----|-2---4--6--4-----2----4-----6-|-0-----2-4-2-0--4--4-|
A-------0----2-----------4----2-----|-0---2--4--2-----0----2-----4-|-------0-2-0----4--2-|
E-3-----------------3----2----------|------------------------------|-3-----------3--2----|
Comments