Metallica - One Chords & Tabs

 

One Chords & Tabs

Metallica Chords & Tabs

Version: 15 Type: Tab 0 ratings
1 star 2 stars 3 stars 4 stars 5 stars
comments

One Tab

===========================================================
	Artist: Metallica
	  Song: One
	 Album: ...And Justice For All
===========================================================

Tabbed: TheMutts @ Ultimate-Guitar.com
Email: fadetoblack726@yahoo.com

Note: To play Kirk's part (the solos), or atleast one of the
solos you need a 24 fret guitar. I have Kirk's ESP so I'm set but the rest of the song
you can get by with a 22 or 21 fret I think.

Key: (# represents any number that might be there)

#s# - slide from one fret to the next
/# - slide down from nowhere (just down/up the neck)
\# - slide up from nowhere
#/ - pick the note then slide down to nowhere
#\ - pick the note then slide up to nowhere
# (#) - let note ring
#b# - pick the note (first #) then bend it to sound like your wereing play the
      second note (second #) (example: pick fret 9 on the G string, now pick fret
      10 on G.. now pick fret 9 on G and bend it up to sound like it was 10 on G)
      if theres and r, that means release on the fret number it tells you.
#h#p# - pick a note, hammer on to the next on, then pull off to the last note
<#> - normal harmonics (lightly touch string with finger and pick)
<-#-> - artificial/pinched harmonics (this is complicated but basicly you pick the string, then
        with the finger holding the pick touchs the string to mute it slightly, this all happens
        while you pick the string ones, so you may need to adjust the way you hold to pick so
        your finger will touch the string after picking it.
P.M.--| - palm mute
x - mute note with fret hand when used in chords/power chords, a palm muted 0 when alone


Guitars:

All guitars are tuned standard (low to high: EADGBE)
James is Guitar 1
Kirk is Guitar 2



Ok so lets get started

-------------------------------------------------------------
Intro (Guitar 1)
-------------------------------------------------------------

||--------------------------------------------------------|
||o-------------------------------------------------------|
||-------------------------------------------------0-(0)--|
||----4---0-(0)---4---0-(0)----4---0-(0)----4---0-(0)-----|
||o-2---2--------------------2---2------------------------|
||--------------3---3---------------------3---3-----------|

|------------------------------------------|-------------|
|------------------------------------------|------------o|
|------------------------------------------|-------------|
|-----4---0-(0)----4---0-(0)----4---0-(0)--|-------------|4x
|---2---2--------0---0---------------------|----2----2--o|
|-----------------------------3---3--------|--0---2------|

(3rd time, play this fill at the end, preverse pt. 1 starts here)
|------------------------|
|------------------------|
|------------------------|
|------------------------|
|-----2---2---2--2h4--2--|
|---0---2---0------------|

(4th time, play this fill at the end)
|------------------------------||
|------------------------------||
|------------------------------||
|-----2h4--2----------0--------||
|--------------4----5-------7--||
|---0--------2----3-----3-5----||


-------------------------------------------------------------
Intro Solo (Guitar 2)
-------------------------------------------------------------

||------------------------------------------------|
||--------------------3p2----3p2----3-3p2---------|
||-------2-4b6r4-(4)------4------2--------4-(4)---|
||---2h4------------------------------------------|
||------------------------------------------------|
||------------------------------------------------|

|---------------------------------------------------|
|--------------------------------------------2h3-2--|
|---11p9-0-9p7-0-7p6p0-2-6p4p0-2--/4-(4)--/4--------|
|---------------------------------------------------|
|---------------------------------------------------|
|---------------------------------------------------|

|--------------------------------------------14-19--|
|------2-3p2-------------------------------15-------|
|---/4-------2-/4-(4)--------------------16---------|
|-------------------------------------*16-----------|
|------------------------2---2----------------------|
|----------------------0---2------------------------|
               *hold pick stiff and pick each string fast
|---17p15-14-15----------------------------------------------|
|---------------15-(15)--------------------------------------|
|------------------------7p6-7-9p7-9-11p9-11--/12-12-11-(11)-|
|------------------------------------------------------------|
|------------------------------------------------------------|
|------------------------------------------------------------|

|-----------------------7--------7-9-9s10-10s12-10-9-7-9--9-10-7-(7)-||
|-------7-8-10------7-8--------7-------------------------------------||
|-----7-----------7----------7---------------------------------------||
|---9-----------9----------9-----------------------------------------||
|--------------------------------------------------------------------||
|--------------------------------------------------------------------||


-------------------------------------------------------------
Preverse Part 1 (Guitar 2)
-------------------------------------------------------------

(This starts at the 3rd time end fill of the intro and plays
the rest along to guitar 1 playing intro)
||----------------------|
||----------------------|
||----------------------|
||----------------------|
||-----2---2---2-2h4-2--|
||---0---2---0----------|

|----------------------------------------------------------------------|
|----------------------------------------------------------------------|
|----------------------------------------------------------------------|
|-----4---0-0--4--0----4---0--4--4-0----4---0-0--4--0----4---0--4--4-0-|
|---2---2-----------------------------2---2----------------------------|
|--------------------3---3-----------------------------3---3-----------|

|--------------------------------------------------------------------------------||
|--------------------------------------------------------------------------------||
|--------------------------------0-(0)-------------------------------------------||
|-----4---0--0-4-0----4---0--4-4-----------4---0--0-4-0---2h4--2---------0-------||
|---2---2-----------0---0------------------------------------------4---5-------7-||
|----------------------------------------3---3----------0--------2---3-----3-5---||


-------------------------------------------------------------
Preverse Part 2 (Guitar 1 and 2)
-------------------------------------------------------------

  Guitar 2
||----------------------------------------------1-----------------0----|
||-----------------------0h3p0---0-0h3p0----------1-------------0---0--|
||------0-7---0----------------4---------0----0--------0----4-0--------|
||----7-----7----5--------------------------3-------------2------------|
||--5------------------------------------------------------------------|
||---------------------------------------------------------------------|
||                                                                     |
||Guitar 1                                                             |
||---------------------------------------------------------------------|
||----3---3---3--5-3h5p3s1h3p1-0---------0-----------------------------|
||------2--------5-4h5p4s2h4p2-0---------0--2---2-4-/7----4-------4----|
||--0---------------------------------------3---3-5-/5----5---5---5-5--|
||------------------------------------------------------------7-----7--|
||---------------------------------------------------------------------|

 Guitar 2
|-----------------------------------------------1----------------------|
|------------------------0h3p0---0-0h3p0----------1---------0----------|
|-------0-7---0----------------4---------0----0--------0------0-4------|
|-----7-----7----5--------------------------3-------------2------------|
|---5--------------------------------------------------------------/3--|
|----------------------------------------------------------------------|
|                                                                      |
|Guitar 1                                                              |
|----------------------------------------------------------------------|
|-----3---3---3--5-3h5p3s1h3p1-0---------0-----------------------------|
|-------2--------5-4h5p4s2h4p2-0---------0--2---2-4-/7----2--2-4--5-4--|
|---0---------------------------------------3---3-5-/5----3--3-5--7-5--|
|----------------------------------------------------------------------|
|----------------------------------------------------------------------|


-------------------------------------------------------------
Verse 1 (Guitar 1 and 2)
-------------------------------------------------------------

  Guitar 2
||----------------------------------------------------------|
||o---------------------------------------------------------|
||----------------------------------------------------------|
||----4---0-0-4-0----4---0-4-4-0----4---0-0-4-0----4---0-0--|
||o-2---2-------------------------2---2------------------0--|
||-----------------3---3-------------------------3---3------|
||                                                          |
||Guitar 1                                                  |\
||----------------------------------------------------------| \
||o---------------------------------------------------------|  \
||----------------------------------------------------------|   |
||----4---0-(0)------4---0-(0)------4---0-(0)------4---0----|   |
||o-2---2-------------------------2---2------------------5--|   |
||-----------------3---3-------------------------3---3---5--|   |
                                                                |-2x
 Guitar 2                                                       |
|-----------------------------------------------------------|   |
|----------------------------------------------------------o|   |
|------------------------------0----------------------------|   |
|-----4---0-0-4-0----4---0-4-4------4---0-0-4-0-------------|   |
|---2---2----------0---0---------------------------2---2---o|  /
|---------------------------------3---3----------0---2------| /
|                                                           |/
|Guitar 1                                                   |
|-----------------------------------------------------------|
|----------------------------------------------------------o|
|-----------------------------------------------------------|
|-----4---0-(0)------4---0-(0)------4---0-(0)---------------|
|---2---2----------0---0---------------------------2---2---o|
|---------------------------------3---3----------0---2------|

(Switch to distortion)

 Guitar 2
|----------------------------------|
|----------------------------------|
|---0--2-4-2-0-----4--2----4-6-4-2-|
|---0--2-4-2-0--4--4--2----4-6-4-2-|
|------0-2-0----4--2--0----2-4-2-0-|
|---3--------3--2------------------|
|                                  |
|Guitar 1                          |
|----------------------------------|
|----------------------------------|
|---0--2-4-2-0-----4--2----4-6-4-2-|
|---0--2-4-2-0--4--4--2----4-6-4-2-|
|------0-2-0----4--2--0----2-4-2-0-|
|---3--------3--2------------------|

(Switch back to clean)

|--------------------|
|--------------------|
|-----------0-7---0--|
|---------7-----7----|
|-3--4--5------------|
|--------------------|
|                    |
|Guitar 1            |
|--------------------|
|---------3---3---3--|
|-----------2--------|
|-------0------------|
|-3--4---------------|
|--------------------| 

 Guitar 2
|--------------------------------------------------------------------------|
|--5--3s5s3s1s3s1-0---------0-----------------------------------3---3---3--|
|--5--4s5s4s2s4s2-0---------0---2----2-4-/5-----4--------4--------2--------|
|-------------------------------3----3-5-/7-----5----5---5-5--0------------|
|----------------------------------------------------7-----7---------------|
|--------------------------------------------------------------------------|
|                                                                          |
|Guitar 1                                                                  |
|------------------------------------1-------------------0-----------------|
|-----------0h3p0---0-0h3p0------------1---------------0---0---------------|
|-----------------4---------0------0--------0------4-0------------0-7---0--|
|--5----------------------------3---------------2---------------7-----7----|
|-------------------------------------------------------------5------------|
|--------------------------------------------------------------------------|

 Guitar 2
|------------------------------------------------------||
|-5-3h5p3S1h3p1-0---------0----------------------------||
|-5-4h5p4S2h4p2-0---------0--2---2-4-/7---2--2-4--5-4--||
|----------------------------3---3-5-/5---3--3-5--7-5--||
|------------------------------------------------------||
|------------------------------------------------------||
|                                                      ||
|Guitar 1                                              ||
|--------------------------------1---------------------||
|---------0h3p0---0-0h3p0----------1---------0---------||
|---------------4---------0----0--------0------0-4-----||
|-5--------------------------3-------------------------||
|-----------------------------------------2--------/3--||
|------------------------------------------------------||


-------------------------------------------------------------
Verse 2 (Guitar 1 and 2)
-------------------------------------------------------------

REPEAT THE ENTIRE VERSE 1 BECAUSE VERSE 1 AND 2 ARE IDENTICAL
OTHER THAN THE LYRICS AND THE 2ND VERSE SOLO I HAVE BELOW...


-------------------------------------------------------------
Verse 2 Solo (Guitar 2)
-------------------------------------------------------------

Guitar 1 plays this on clean while the Guitar 2 plays the solo
|-----------0-------------------------------------------1------|
|o--------0----0-----------------0h3p0---0-0h3p0----------1---o|
|-----4-0-------------0-7-----0--------4---------0----0-----0--|
|---2---------------7-----7-5-----------------------3----------|3x
|o----------------5-------------------------------------------o|
|--------------------------------------------------------------|

Guitar 2 Solo
||-----------------------------------10-8-7----7-8------17p14----14-17---|
||---10-7----7-10--10-8-7---7h8p7-----------10-----8----------15---------|
||--------10--------------9-------7--------------------------------------|
||-----------------------------------------------------------------------|
||-----------------------------------------------------------------------|
||-----------------------------------------------------------------------|

|---17-15-14-15p14-----------15-17--19p17p15-19p17p15-19p17p15----15----------|
|------------------15--15-19-----------------------------------19----17-19-15-|
|-----------------------------------------------------------------------------|
|-----------------------------------------------------------------------------|
|-----------------------------------------------------------------------------|
|-----------------------------------------------------------------------------|

|----------------------------------------------|
|---(15)---8--8-8s7-(7)--/13-13-13-13--12-(12)-|
|----------7--7-7---(7)--/12-12-12-12--12-(12)-|
|----------------------------------------------|
|----------------------------------------------|
|----------------------------------------------|
  T        T        T        T        T        T       T=tap with edge of pick  
|-20p17p13-20p17p13-20p17p13-20p17p13-20p17p13-20p17p13-12h13p12-12h13p12-(12)-||
|------------------------------------------------------------------------------||
|------------------------------------------------------------------------------||
|------------------------------------------------------------------------------||
|------------------------------------------------------------------------------||
|------------------------------------------------------------------------------||


-------------------------------------------------------------
Distortion Part After Verse 2 Solo (Guitar 1 and 2)
-------------------------------------------------------------


 Both Guitars
||---------------------------------------|
||o-------------------------------------o|
||---0--2-4-2-0-----4--2--4-6-4-2--4--6--|
||---0--2-4-2-0--4--4--2--4-6-4-2--4--6--|2x
||o-----0-2-0----4--2--0--2-4-2-0--2--4-o|
||---3--------3--2-----------------------|

|---------------------|
|---------------------|
|---0--2-4-2-0-----4--|
|---0--2-4-2-0--4--4--|
|------0-2-0----4--2--|
|---3--------3--2-----|


 Guitar 2                                                           4x
|-------------|-----------------|------------|----------------------|
|o-5----3-5h8-|--8--------------|-7------7---|--8------------------o|
|--5----4-5-7-|--7--------------|-8------8---|--9-------------------|
|--7----5-7-9-|--9----9-10-12---|-9------9---|-10-------------------|
|o-7----5-7h9-|-10---10-12-14---|------------|-14p12p10-(10)-------o|
|-------------|-----------------|------------|----------------------|
|
|Guitar 1
|       PM--|         PM------|        PM  PM                PM  PM 4x
|-------------|-----------------|------------|----------------------|
|o------------|-----------------|------------|---------------------o|
|-------------|-------0--0--0-0-|-4------4---|--5--------------5----|
|--2----0-2-0-|-------0--0--0-0-|-4------4---|--5--------------5----|
|o-3----2-3-0-|--2----5--5--5-5-|-2------2---|--3--------------3---o|
|-------------|--3----3--3--3-3-|------2---2-|---------------3---3--|


 Both Guitars
       PM---------------|             PM  PM
|--------------|----------------|------------|
|o-------------|----------------|------------|
|--------------|----------------|-4------4---|
|--5-5-5-7-5---|-4-4-4-5-4-(4)\-|-4------4---|
|o-7-7-7-7-7-5-|-5-5-5-5-5-(5)\-|-2------2---|
|--------------|----------------|------2---2-|


                Slightly Faster Q=108
                   4/4
    PM|   PM  PM
|----------------|------------------|
|---------------o|------------------|
|-5-----5---5----|-5---------(5)----|
|-5-5-5-5---5----|-5---------(5)----|
|-3-3-3-3---3---o|-7---------(7)----|
|---------3---3--|-0---------(0)----|

  PM---------|    PM---------|      PM---------|    PM---------|
|---------------------------------|---------------------------------|
|---------------------------------|---------------------------------|
|---------------------------------|---------------------------------|
|-------------2---------------2---|-------------2---------------2---|
|-------------2---------------2---|-------------2---------------2---|
|-0-0-0-0-0-0-0---0-0-0-0-0-0-0---|-0-0-0-0-0-0-0---0-0-0-0-0-0-0---|


  PM---------|   PM---------|      PM---------|    PM---------|      5x
|--------------------------------|----------------------------------||
|--------------------------------|o--------------------------------o||
|--------------------------------|----------------------------------||
|-------------2--------------2---|--------------2--------------2-3--||
|-------------2--------------2---|o-------------2--------------2-3-o||
|-0-0-0-0-0-0-0--0-0-0-0-0-0-0---|--0-0-0-0-0-0-0--0-0-0-0-0-0------||

   PM---------|    PM---------|      PM---------|    PM---------| 
|----------------------------------|----------------------------------|
|o---------------------------------|----------------------------------|
|----------------------------------|----------------------------------|
|--------------2---------------2---|-------------2---------------2-3--|
|o-------------2---------------2---|-------------2---------------2-3--|
|--0-0-0-0-0-0-----0-0-0-0-0-0-----|-0-0-0-0-0-0-----0-0-0-0-0-0------|
 

  PM---------|    PM---------|      PM---------|    PM---------|
|---------------------------------|---------------------------------|
|---------------------------------|---------------------------------|
|---------------------------------|---------------------------------|
|-------------2---------------2---|-------------2---------------2-3-|
|-------------2---------------2---|-------------2---------------2-3-|
|-0-0-0-0-0-0-----0-0-0-0-0-0-----|-0-0-0-0-0-0-----0-0-0-0-0-0-----|


  PM---------|   PM---------|      PM---------|   PM---------|    
|--------------------------------|--------------------------------|
|--------------------------------|--------------------------------|
|--------------------------------|--------------------------------|
|--------------------------------|--------------------------------|
|-------------7--------------7S8-|-------------5--------------5S8-|
|-0-0-0-0-0-0----0-0-0-0-0-0-----|-0-0-0-0-0-0----0-0-0-0-0-0-----|


  PM---------|   PM---------|      PM---------|   PM---------|  
|--------------------------------|---------------------------------||
|--------------------------------|--------------------------------o||
|--------------------------------|---------------------------------||
|--------------------------------|---------------------------------||
|-------------7--------------7S8-|-------------5--------------5---o||
|-0-0-0-0-0-0----0-0-0-0-0-0-----|-0-0-0-0-0-0----0-0-0-0-0-0---7--||


-------------------------------------------------------------
Fast & Heavy Distortion Part (Guitar 1 and 2)
-------------------------------------------------------------

       Double Time Q=216

  Both Guitars
    PM---------|  PM-----------|    PM--|
||-----------------------|-------------------|
||o----------------------|-------------------|
||-----------------------|-------------------|
||--------------2--------|-------2--------3--|
||o-------------2--------|-------2--------3--|
||--0-0-0-0-0-0----0-0-0-|-0-0-0----0-0-0----|


  PM---------|   PM----------|    PM--|
|----------------------|--------------------|
|----------------------|--------------------|
|----------------------|--------------------|
|-------------2--------|-------2--------3---|
|-------------2--------|-------2--------3---|
|-0-0-0-0-0-0----0-0-0-|-0-0-0----0-0-0-----|


  PM---------|   PM----------|    PM--|
|----------------------|-------------------|
|----------------------|-------------------|
|----------------------|-------------------|
|-------------2--------|-------2--------3--|
|-------------2--------|-------2--------3--|
|-0-0-0-0-0-0----0-0-0-|-0-0-0----0-0-0----|


  PM---------|   PM----------|    PM--|
|----------------------|---------------------|
|----------------------|---------------------|
|----------------------|---------------------|
|-------------2--------|-------2--------3----|
|-------------2--------|-------2--------3----|
|-0-0-0-0-0-0----0-0-0-|-0-0-0----0-0-0------|

  PM----------|   PM------------|    PM---|
|-----------------------|---------------------|
|-----------------------|---------------------|
|-----------------------|---------------------|
|-----------------------|---------------------|
|-----------------------|---------------------|
|-0-0-0-0-0-0-0---0-0-0-|-0-0-0-0---0-0-0-0---|


  PM----------|   PM--------------|    PM-----|
|-----------------------|-------------------------||
|-----------------------|------------------------o||
|-----------------------|-------------------------||
|-----------------------|-------------------------||
|-----------------------|------------------------o||
|-0-0-0-0-0-0-0---0-0-0-|-0-0-0-0---0-0-0-0-0-0---||


This section plays 3 times, but on the third time,
Guitar 2 plays the solo and Guitar 1 plays this 1 more
time...


-------------------------------------------------------------
Solo 3 (Guitar 2)
-------------------------------------------------------------

(this solo requires tapping not picking in some parts
 the note that you tap will be shown with T over it)

[ Tab from: http://www.guitartabs.cc/tabs/m/metallica/one_tab_ver_15.html ]
   T        T        T        T        T        T        T        T
|-19p15p12-19p15p12-19p15p12-19p15p12-19p15p12-19p15p12-19p15p12-19p15p12-|
|-------------------------------------------------------------------------|
|-------------------------------------------------------------------------|
|-------------------------------------------------------------------------|
|-------------------------------------------------------------------------|
|-------------------------------------------------------------------------|


   T        T        T        T        T        T        T        T
|-20p15p12-20p15p12-20p15p12-20p15p12-20p15p12-20p15p12-20p15p12-20p15p12--|
|--------------------------------------------------------------------------|
|--------------------------------------------------------------------------|
|--------------------------------------------------------------------------|
|--------------------------------------------------------------------------|
|--------------------------------------------------------------------------|


   T        T        T        T        T        T        T        T
|-------------------------------------------------------------------------|
|-19p15p12-19p15p12-19p15p12-19p15p12-19p15p12-19p15p12-19p15p12-19p15p12-|
|-------------------------------------------------------------------------|
|-------------------------------------------------------------------------|
|-------------------------------------------------------------------------|
|-------------------------------------------------------------------------|


   T        T        T        T        T        T        T        T
|--------------------------------------------------------------------------|
|-20p15p12-20p15p12-20p15p12-20p15p12-20p15p12-20p15p12-20p15p12-20p15p12--|
|--------------------------------------------------------------------------|
|--------------------------------------------------------------------------|
|--------------------------------------------------------------------------|
|--------------------------------------------------------------------------|


   T        T        T        T        T        T        T        T
|-------------------------------------------------------------------------|
|-17p13p10-17p13p10-17p13p10-17p13p10-17p13p10-17p13p10-17p13p10-17p13p10-|
|-------------------------------------------------------------------------|
|-------------------------------------------------------------------------|
|-------------------------------------------------------------------------|
|-------------------------------------------------------------------------|


   T        T        T        T        T        T        T        T
|--------------------------------------------------------------------------|
|-18p13p10-18p13p10-18p13p10-18p13p10-18p13p10-18p13p10-18p13p10-18p13p10--|
|--------------------------------------------------------------------------|
|--------------------------------------------------------------------------|
|--------------------------------------------------------------------------|
|--------------------------------------------------------------------------|


   T        T       T       T     T       T
|-----------------------------------------------|
|-17p12h14-17p12---17p10---17p12-17p10---17p8---|
|-----------------------------------------------|
|-----------------------------------------------|
|-----------------------------------------------|
|-----------------------------------------------|


   T       T      T    T      T      T
|-----------------------------------------|
|-17p10---17p8---17p7-17p8---17p7---17p5--|
|-----------------------------------------|
|-----------------------------------------|
|-----------------------------------------|
|-----------------------------------------|


|--------------------------14-14-14-|
|-/12-12-12-12-12-12-12-12----------|
|-----------------------------------|
|-----------------------------------|
|-----------------------------------|
|-----------------------------------|


|-15-15-15-17-17---17-17----------17-17-17-17--|
|------------------------15-15-15--------------|
|----------------------------------------------|
|----------------------------------------------|
|----------------------------------------------|
|----------------------------------------------|


!!!(now the solo is still going, but Guitar 1 will finish
playing the 3 repeat on the fast heavy part. Guitar 1 plays
a new riff along with the solo. Just remember, Guitar 2 (solo)
is the top measure, Guitar 1 (heavy riff) is bottom measure)!!!

Note: I didn't include Palm Muting in this section,
      but you can figure it out. It's idiot proof.

|-17p15-------------15-17p15-------15h17---|
|-------17-15-17-19----------17-15---------|
|------------------------------------------|
|------------------------------------------|
|------------------------------------------|
|------------------------------------------|
|
|
|------------------------------------------|
|------------------------------------------|
|------------------------------------------|
|-----------------------2-----------2------|
|-----------------------2-----------2------|
|--0--0--0-----0--0--0--0-----------0------|




|-19p17p==15------19p17p==15------19p17p15----19p17p15----|
|--------------15--------------15----------15----------15-|
|---------------------------------------------------------|
|---------------------------------------------------------|
|---------------------------------------------------------|
|---------------------------------------------------------|
|
|
|---------------------------------------------------------|
|---------------------------------------------------------|
|---------------------------------------------------------|
|----------------------------------2-----------2----------|
|----------------------------------2-----------2----------|
|--0----0----0-----0----0----0-----0-----------0----------|



|-19p17----19p17----19p17----19p17p15-|
|-------15-------15-------15----------|
|-------------------------------------|
|-------------------------------------|
|-------------------------------------|
|-------------------------------------|
|
|
|-------------------------------------|
|-------------------------------------|
|-------------------------------------|
|--------------------2--------2-------|
|--------------------2--------2-------|
|--0--0--0--0--0--0--0--------0-------|



|----------------15------------------15----------------15--------------15-|
|-18b20==(20)r--------18b20==(20)r--------18b20==(20)r----18b20==(20)r----|
|-------------------------------------------------------------------------|
|-------------------------------------------------------------------------|
|-------------------------------------------------------------------------|
|-------------------------------------------------------------------------|
|
|
|-------------------------------------------------------------------------|
|-------------------------------------------------------------------------|
|-------------------------------------------------------------------------|
|------------------------------------------5---------------5--------------|
|------------------------------------------5---------------5--------------|
|--3-----------3----3--3-----------3----3--3---------------3--------------|



|-18b19==(19)r---15------------------15---18b19==(19)r-15--------------15-|
|---------------------18b20==(20)r------------------------18b20==(20)r----|
|-------------------------------------------------------------------------|
|-------------------------------------------------------------------------|
|-------------------------------------------------------------------------|
|-------------------------------------------------------------------------|
|
|
|-------------------------------------------------------------------------|
|-------------------------------------------------------------------------|
|-------------------------------------------------------------------------|
|------------------------------------------5---------------5--------------|
|------------------------------------------5---------------5--------------|
|--3-----------3----3--3-----------3----3--3---------------3--------------|



|-19p17p15-17-----17p15----15--|---------------------------------|
|-----------------------19-----|-19p17p15-17-----15h17p15s13-15--|
|------------------------------|---------------------------------|
|------------------------------|---------------------------------|
|------------------------------|---------------------------------|
|------------------------------|---------------------------------|
|
|
|------------------------------|---------------------------------|
|------------------------------|---------------------------------|
|------------------------------|---------------------------------|
|------------------5--------5--|------------------5-----------6--|
|------------------5--------5--|------------------5-----------6--|
|--3--3--3--3-3-3--3--------3--|--3--3--3--3-3-3-----------------|



|-------------------------------------------|
|-13h15p13p12---13-----12h13p12----12-------|
|-------------------------------14----14p12-|
|-------------------------------------------|
|-------------------------------------------|
|-------------------------------------------|
|
|
|-------------------------------------------|
|-------------------------------------------|
|-------------------------------------------|
|-----------------------3-----------3-------|
|-----------------------3-----------3-------|
|--1-----1----1--1-1-1--1-----------1-------|



|----------------------------------------------------------------|
|----------------------------------------------------------------|
|-14p12----12----12-14b16==(16)r---14b16==(16)r---14b16==(16)r---|
|-------14----14-------------------------------------------------|
|----------------------------------------------------------------|
|----------------------------------------------------------------|
|
|
|----------------------------------------------------------------|
|----------------------------------------------------------------|
|----------------------------------------------------------------|
|--------------------5--------------------------5----------------|
|--------------------5--------------------------5----------------|
|--3--3--3--3--3--3--3--------------------------3----------------|



|------------------------------------------------------|
|------------------------------------------------------|
|-14b16==(16)r---14b16========(16)--(16)-(16)r-12------|
|-------------------------------------------------14---|
|------------------------------------------------------|
|------------------------------------------------------|
|
|
|------------------------------------------------------|
|------------------------------------------------------|
|------------------------------------------------------|
|-------------------------------5-----5----------------|
|-------------------------------5-----5----------------|
|--3-----------3--3-----3-3-3---3-----3----------------|



|---------------------------|-----------------------|
|---------------------------|-----------------------|
|-12--------12--------------|-----------------------|
|------14--------14-13---12-|-----------------------|
|---------------------------|-14---13---12---10-----|
|---------------------------|-----------------------|
|
|
|---------------------------|-----------------------|
|---------------------------|-----------------------|
|---------------------------|-----------------------|
|-----------------5----6----|-----------------3--3--|
|-----------------5----6----|-----------------3--3--|
|--3-3--3-3--3-3------------|--1-1--1-1--1-1--1--1--|


   PM|                   PM|                     PM|                   PM|
|---------------------------------------------|---------------------------------------------|
|-------14b14.5=(14.5)r-------14b14.5=(14.5)r-|-------14b14.5=(14.5)r-------14b14.5=(14.5)r-|
|-------14b15=====(14)r-------14b15=====(14)r-|-------14b15=====(14)r-------14b15=====(14)r-|
|-17-17-----------------17-17-----------------|-17-17-----------------17-17-----------------|
|---------------------------------------------|---------------------------------------------|
|---------------------------------------------|---------------------------------------------|
|
|  PM|                  PM|                     PM|                   PM|
|---------------------------------------------|---------------------------------------------|
|---------------------------------------------|---------------------------------------------|
|---------------------------------------------|---------------------------------------------|
|--------5---------------------5--------------|--------5---------------------5--------------|
|--------5---------------------5--------------|--------5----------------------5-------------|
|--3--3--3---------------3--3--3--------------|--3--3--3--------------3--3--3---------------|



|------------------------------------------------------------------------------|
|-17b18======(18)r(17)-(17)b18====(18)r==(17)-(17)--17b18==(18)-(18)r-(17)b18==|
|-17b18======(18)r(17)-(17)b18====(18)r==(17)-(17)--17b18==(18)-(18)r-(17)b18==|
|------------------------------------------------------------------------------|
|------------------------------------------------------------------------------|
|------------------------------------------------------------------------------|
|
|
|------------------------------------------------------------------------------|
|------------------------------------------------------------------------------|
|------------------------------------------------------------------------------|
|------------------------------------------------------------------------------|
|-----------------------------------------------3----3-------------------------|
|--1-----1-1--------1-----------1------1--------1----1-------------------------|


                                                 PM|                   PM|
|----------------------------------------------|----------------------------------------------|
|-(18)r-----(17)b18======(18)-(18)rp15-----15--|-------14b14.5=(14.5)r-------14b14.5=(14.5)r--|
|-(18)r-----(17)b18======(18)-(18)r-15-----15--|-------14b15=====(14)r-------14b15=====(14)r--|
|---------------------------------------17-----|-17-17-----------------17-17------------------|
|----------------------------------------------|----------------------------------------------|
|----------------------------------------------|----------------------------------------------|
|
|                                                 PM|                   PM|
|----------------------------------------------|----------------------------------------------|
|----------------------------------------------|----------------------------------------------|
|----------------------------------------------|----------------------------------------------|
|----------------------------------------------|--------5---------------------5---------------|
|--------------------------3----------------3--|--------5---------------------5---------------|
|---1---1-1---1------1-1---1----------------1--|--3--3--3---------------3--3--3---------------|


|-----------------------|
|----17---17-15------15-|
|----17---17-15---------|
|-17--------------------|
|-----------------------|
|-----------------------|
|
|  PM|        PM-|
|-----------------------|
|-----------------------|
|-----------------------|
|-------5----------5----|
|-------5----------5----|
|--3--3-3-----3--3-3----|


   S      +S      E    S      +S      E    S      +S    E  S      +S    E
|----------------15------------------15----------------15--------------15-|
|-18b20==(20)r--------18b20==(20)r--------18b20==(20)r----18b20==(20)r----|
|-------------------------------------------------------------------------|
|-------------------------------------------------------------------------|
|-------------------------------------------------------------------------|
|-------------------------------------------------------------------------|
|
|
|-------------------------------------------------------------------------|
|-------------------------------------------------------------------------|
|-------------------------------------------------------------------------|
|-------------------------------------------------------------------------|
|------------------------------------------3---------------3--------------|
|--1-----------1----1--1-----------1----1--1---------------1--------------|



|----------------15------------------15-------------------||
|-18b20==(20)r--------18b20==(20)r--------18b20===(20)r---||
|---------------------------------------------------------||
|---------------------------------------------------------||
|---------------------------------------------------------||
|---------------------------------------------------------||
|
|
|---------------------------------------------------------||
|---------------------------------------------------------||
|---------------------------------------------------------||
|---------------------------------------------------------||
|------------------------------------------3--------3-----||
|--1-----------1----1--1-----------1----1--1--------1-----||



-------------------------------------------------------------
Back to Heavy Distortion Part (Guitar 1 and 2)
-------------------------------------------------------------

  Both Guitars
||-----------------------|-------------------------|------------------------|
||-----------------------|-------------------------|o-----------------------|
||-----------------------|-------------------------|------------------------|
||-----------------------|-------------------------|--------------2---------|
||-----------------5-5-5-|-5-5-5-4-4-4-3-3-3-2-2-2-|o-------------2---------|
||-3-3-3-3-3-3-3---------|-------------------------|--0-0-0-0-0-0----0-0-0--|

                    4x
|--------------------|-----------------------|-------------------------|
|-------------------o|-----------------------|-------------------------|
|--------------------|-----------------------|-------------------------|
|-------2--------3---|-----------------------|-------------------------|
|-------2--------3--o|-----------------5-5-5-|-5-5-5-4-4-4-3-3-3-2-2-2-|
|-0-0-0----0-0-0-----|-0-0-0-0-0-0-0---------|-------------------------|


(The last solo kicks in right here, Guitar 2 plays solo, and Guitar 1 plays the riff
below to top measure)

 Guitar 2
|------------------------5-5-5-|------------------7-7-7-5--|
|-8-8-8-7b7.5==(7.5)r----7-7-7-|-8b8.5==(8.5)r----8-8-8-7--|
|-9-9-9-7b7.5==(7.5)r-7--------|-9b9.5==(9.5)r-9-----------|
|---------------------9--------|---------------9-----------|
|------------------------------|---------------------------|
|------------------------------|---------------------------|
|
|Guitar 1
|------------------------------|---------------------------|
|------------------------------|---------------------------|
|------------------------------|---------------------------|
|---------------------2--------|---------------2--------3--|
|---------------------2--------|---------------2--------3--|
|-0-0-0-0------0--0------0-0-0-|-0------0--0------0-0-0----|




|-7-5---5-----5-----------|--------------------|
|-8-7-8-7-----7-8-7-8-----|-8-7-5-7--7-5---5---|
|-----9---------9-7-9-----|-9-7-6-7--7-6-7-6---|
|-------------------------|--------------9-----|
|-------------------------|--------------------|
|-------------------------|--------------------|
|
|
|-------------------------|--------------------|
|-------------------------|--------------------|
|-------------------------|--------------------|
|-------------2-----------|-------2--------3---|
|-------------2-----------|-------2--------3---|
|-0-0-0-0-0-0-------0-0-0-|-0-0-0----0-0-0-----|



|------------------------5-5-5-|------------------7-7-7-5--|
|-8-8-8-7b7.5==(7.5)r----7-7-7-|-8b8.5==(8.5)r----8-8-8-7--|
|-9-9-9-7b7.5==(7.5)r-7--------|-9b9.5==(9.5)r-9-----------|
|---------------------9--------|---------------9-----------|
|------------------------------|---------------------------|
|------------------------------|---------------------------|
|
|
|------------------------------|---------------------------|
|------------------------------|---------------------------|
|------------------------------|---------------------------|
|---------------------2--------|---------------2--------3--|
|---------------------2--------|---------------2--------3--|
|-0-0-0-0------0--0------0-0-0-|-0------0--0------0-0-0----|



|-7-5---5-----5-----------|-------------------|-------------------------|
|-8-7-8-7-----7-8-7-8-----|-8-7-5-7--7-5---5--|-5-----------------------|
|-----9---------9-7-9-----|-9-7-6-7--7-6-7-6--|-6-7-6-7-----7-6-4-6-----|
|-------------------------|--------------9----|---9-7-9-----9-7-5-7-----|
|-------------------------|-------------------|-------------------------|
|-------------------------|-------------------|-------------------------|
|
|
|-------------------------|-------------------|-------------------------|
|-------------------------|-------------------|-------------------------|
|-------------------------|-------------------|-------------------------|
|-------------2-----------|-------2--------3--|-------------2-----------|
|-------------2-----------|-------2--------3--|-------------2-----------|
|-0-0-0-0-0-0-------0-0-0-|-0-0-0----0-0-0----|-0-0-0-0-0-0-------0-0-0-|



|-------------------|
|-------------------|
|-6-4-2-4--4-2-0-2--|(solo stops right here, ending part begins)
|-7-5-4-5--4-2-0-4--|
|-------------------|
|-------------------|
|
|                    BOTH GUITARS!!                             3x
|-------------------|-----------------------|--------------------|
|-------------------|o----------------------|-------------------o|
|-------------------|-----------------------|--------------------|
|-------2--------3--|--------------2--------|-------2--------3---|
|-------2--------3--|o-------------2--------|-------2--------3--o|
|-0-0-0----0-0-0----|--0-0-0-0-0-0----0-0-0-|-0-0-0----0-0-0-----|


 Both Guitars
   PM--------|    PM----------|    PM--|      PM|    PM|      PM|    PM|
|-----------------------|-------------------|---------------|----------------|
|o----------------------|-------------------|---------------|---------------o|
|-----------------------|-------------------|---------------|----------------|
|--------------2--------|-------2--------3--|-----5------5--|-----5------5---|
|o-------------2--------|-------2--------3--|-----5------5--|-----5------5--o|
|--0-0-0-0-0-0----0-0-0-|-0-0-0----0-0-0----|-3-3-3--3-3-3--|-3-3-3--3-3-3---|




                      repeat 4 times, but these are the ends to each repeat
                      the 4th repeat is just the ending riff.
                      ________________ ________________________________
                     | 1.,2.,3.       |4.
   PM--------|         PM|    PM|       PM|    PM|      PM|    PM|
|--------------------|----------------|---------------|----------------|
|o-------------------|---------------o|---------------|----------------|
|--------------------|----------------|---------------|----------------|
|--------------2--2--|-----3------3---|-----5------5--|-----5------5---|
|o-------------2--2--|-----3------3--o|-----5------5--|-----5------5---|
|--0-0-0-0-0-0-0--0--|-1-1-1--1-1-1---|-3-3-3--3-3-3--|-3-3-3--3-3-3---|

 ___________________________________________
|
  PM--------|    PM----------|    PM--|
|----------------------|-------------------|
|----------------------|-------------------|
|----------------------|-------------------|
|-------------2--------|-------2--------3--|
|-------------2--------|-------2--------3--|
|-0-0-0-0-0-0----0-0-0-|-0-0-0----0-0-0----|

 _________________________________________
|
|-----------------------|----------------||
|-----------------------|----------------||
|-----------------------|----------------||
|-2-2-2-2-2-2-2---2-2-2-|-2-2-2-2--------||
|-2-2-2-2-2-2-2---2-2-2-|-2-2-2-2--------||
|-0-0-0-0-0-0-0---0-0-0-|-0-0-0-0--------||


-------------------------------------------------------------
Comments