Metallica - One Chords & Tabs

 

One Chords & Tabs

Metallica Chords & Tabs

Version: 11 Type: Tab 0 ratings
1 star 2 stars 3 stars 4 stars 5 stars
comments

One Tab

E-19p15p12--19p15p12-19p15p12-19p15p12-19p15p12-19p15p12-19p15p12-19p15p12-| 
B--------------------------------------------------------------------------| 
G--------------------------------------------------------------------------| 
D--------------------------------------------------------------------------| 
A--------------------------------------------------------------------------| 
E--------------------------------------------------------------------------| 
[ T := Tap using edge of pick; p := pull off finger or pick                ] 
[ Tab from: http://www.guitartabs.cc/tabs/m/metallica/one_tab_ver_11.html ]
  
  T         T        T        T        T        T        T        T 
E-20p15p12--20p15p12-20p15p12-20p15p12-20p15p12-20p15p12-20p15p12-20p15p12-| 
B--------------------------------------------------------------------------| 
G--------------------------------------------------------------------------| 
D--------------------------------------------------------------------------| 
A--------------------------------------------------------------------------| 
E--------------------------------------------------------------------------| 
  
  T         T        T        T        T        T        T        T 
E--------------------------------------------------------------------------| 
B-19p15p12--19p15p12-19p15p12-19p15p12-19p15p12-19p15p12-19p15p12-19p15p12-| 
G--------------------------------------------------------------------------| 
D--------------------------------------------------------------------------| 
A--------------------------------------------------------------------------| 
E--------------------------------------------------------------------------| 
  
  T         T        T        T        T        T        T        T 
E--------------------------------------------------------------------------| 
B-20p15p12--20p15p12-20p15p12-20p15p12-20p15p12-20p15p12-20p15p12-20p15p12-| 
G--------------------------------------------------------------------------| 
D--------------------------------------------------------------------------| 
A--------------------------------------------------------------------------| 
E--------------------------------------------------------------------------| 
  
  T         T        T        T        T        T        T        T 
E--------------------------------------------------------------------------| 
B-17p13p10--17p13p10-17p13p10-17p13p10-17p13p10-17p13p10-17p13p10-17p13p10-| 
G--------------------------------------------------------------------------| 
D--------------------------------------------------------------------------| 
A--------------------------------------------------------------------------| 
E--------------------------------------------------------------------------| 
  
  T         T        T        T        T        T        T        T 
E--------------------------------------------------------------------------| 
B-18p13p10--18p13p10-18p13p10-18p13p10-18p13p10-18p13p10-18p13p10-18p13p10-| 
G--------------------------------------------------------------------------| 
D--------------------------------------------------------------------------| 
A--------------------------------------------------------------------------| 
E--------------------------------------------------------------------------| 
  
  T        T     T     T     T     T      T     T    T    T    T    T 
E---------------------------------------|----------------------------------| 
B-17p12h14-17p12-17p10-17p12-17p10-17p8-|-17p10-17p8-17p7-17p8-17p7-17p5---| 
G---------------------------------------|----------------------------------| 
D---------------------------------------|----------------------------------| 
A---------------------------------------|----------------------------------| 
E---------------------------------------|----------------------------------| 
  
E------------------------------14-14-14-|-15-15-15--17-17-17---------------- 
B-/12-12-12--12-12-12--12--12-----------|---------------------15-15-15------ 
G---------------------------------------|----------------------------------- 
D---------------------------------------|----------------------------------- 
A---------------------------------------|----------------------------------- 
E---------------------------------------|----------------------------------- 
  
E-17-17-17-17-|-22^24-------22^24----22^24~|~~~~~~~~\---------------15-----| 
B-------------|----------------------------|--------------/17--------------| 
G-------------|----------------------------|-------------------------------| 
D-------------|----------------------------|-------------------------------| 
A-------------|----------------------------|-------------------------------| 
E-------------|----------------------------|-------------------------------| 
  
E-17p15---------------15h17p15-------------|-15h17p15-------------15h17p15-- 
B--------17-15-17-19-----------17-15-17-19-|----------17-15-17-19----------- 
G------------------------------------------|-------------------------------- 
D------------------------------------------|-------------------------------- 
A------------------------------------------|-------------------------------- 
E------------------------------------------|-------------------------------- 
  
E-----------15-|-17p15------------15-17p15---------15h17----| 
B-17-17-19-----|--------15-17-19------------17--15----------| 
G--------------|--------------------------------------------| 
D--------------|--------------------------------------------| 
A--------------|--------------------------------------------| 
E--------------|--------------------------------------------| 
  
E-19p17p15-----19p17p15-----19p17p15------19p17p15----------| 
B----------15-----------15------------15------------15------| 
G-----------------------------------------------------------| 
D-----------------------------------------------------------| 
A-----------------------------------------------------------| 
E-----------------------------------------------------------| 
  
E-19p17--------19p17--------19p17---------19p17p15----------| 
B----------15-----------15------------15--------------------| 
G-----------------------------------------------------------| 
D-----------------------------------------------------------| 
A-----------------------------------------------------------| 
E-----------------------------------------------------------| 
  
E-------15-------15-------15-------15-|-18^19-15-------15-18^19-15-------15-| 
B-18^20----18^20----18^20----18^20----|----------18^20-------------18^20----| 
G-------------------------------------|-------------------------------------| 
D-------------------------------------|-------------------------------------| 
A-------------------------------------|-------------------------------------| 
E-------------------------------------|-------------------------------------| 
  
E-19p17p15-17----17p15----15----------|-------------------------------------| 
B----------------------19-------------|-19p17p15-17-----15h17p15\13--15-----| 
G-------------------------------------|-------------------------------------| 
D-------------------------------------|-------------------------------------| 
A-------------------------------------|-------------------------------------| 
E-------------------------------------|-------------------------------------| 
  
E------------------------------------------|--------------------------------| 
B-13h15p13\12--13-----12h13p12----12-------|--------------------------------| 
G------------------------------14----14p12-|-14p12----12----12--14^-14^-14^-| 
D------------------------------------------|-------14----14-----------------| 
A------------------------------------------|--------------------------------| 
E------------------------------------------|--------------------------------| 
  
E----------------------------|---------------------|------------------------| 
B----------------------------|---------------------|------------------------| 
G-14^16-14^16-----v14p12-----|-12-----12-----------|------------------------| 
D-------------------------14-|----14------14-13-12-|------------------------| 
A----------------------------|---------------------|-14-13-12-10~~~~~-------| 
E----------------------------|---------------------|------------------------| 
  
E---------------------------|---------------------------|-------------------| 
B---------15^----------15^--|---------15^----------15^--|-17^-v-^-v-^-17^v^-| 
G---------15^----------15^--|---------15^----------15^--|-17^-v---v-^-17^v^-| 
D-17--17--------17--17------|-17--17--------17--17------|-------------------| 
A---------------------------|---------------------------|-------------------| 
E---------------------------|---------------------------|-------------------|
Comments